Song name
# A B C D E F G H I J K L M N O P Q R S T U V W X Y Z

Nathaniel Rateliff - We Never Win chords

Highlighted       Show chord diagrams
-------------------------------------------------------------------------------
			     We Never Win  Nathaniel Rateliff
-------------------------------------------------------------------------------
Tabbed by: Gulliver	
Email: archabarch@yahoo.com

      F2    G     Em      F
e|----2-----3-----0-------2------------------|
B|----3-----0-----0-------2------------------|
G|----4-----0-----x-------3------------------|
D|----4-----0-----2-------2------------------|
A|----2-----2-----2-------4------------------|
E|----2-----3-----x-------2------------------|

F2
He's a manic boy
                 G
Looks a lot like me
                  Em
Looks a lot like me
                   F2
And he shares the blame

With a younger face
It's hard and rushed to see
And it's hard for us to see
But I can tell

Is it cold enough
Does it chatter your teeth
And the wind won't set you free
And it never has

        F2   F1  G    Em
Like an old time revival           	
            G    F1               F2
Shake your hands, and shake your hips		
Put up all my armor
Let me stand bear, with just two fist
Tap to rate this tab
 
# A B C D E F G H I J K L M N O P Q R S T U V W X Y Z