Song name
# A B C D E F G H I J K L M N O P Q R S T U V W X Y Z

Nathaniel Rateliff - I Am tab

-----------------------------------------------------------------------------
                       Nathaniel Rateliff - I Am
-----------------------------------------------------------------------------
Tabbed by: Marcus Marchal (Warflojd)
E-mail: mackan_003_94@hotmail.com

Tuning: Standard
Capo: 5

The first and the second verse are very similar but the notes changes from here to there
but it's fun to play around with the picking pattern. The places where I have just put
the chords is where he kind of strums the chords instead of using the picking pattern. 
Great song nonetheless, hope you enjoy it!

References:
http://www.youtube.com/watch?v=OxDyWDjWn-U&list=HL1381782099
http://www.youtube.com/watch?v=tXZgSi9WTGM&list=HL1381782099


INTRO:
       Am                      C                           F
e|-----0-----------0-----------0--0--0------0--0--0--------0--3-------0----------0--3-------0--0--|
B|-----1--1--------1--1--------1-----1------1--1--1--------1----------1--1-------1----------1-----|
G|-----2--------2--2--------0--0-----0---------0--0-----2--2-------2--2-------2--2-------2--2-----|
D|-----2-----------2-----------2-----0h2-------2--0--3----------3----------3----------3-----------|
A|--0--------0-----------3------------------------------------------------------------------------|
E|------------------------------------------------------------------------------------------------|

VERSE 1:

  ..We built fires large enough that it burned the woods..
e|-----0-----------0-----------0--0--------0-----------0--3-------0----------0--3-------0--0--|
B|-----1--1--------1--1--------1-----------1--1--------1----------1--1-------1----------1-----|
G|-----2--------2--2-----------0-----------0--------2--2-------2--2-------2--2-------2--2-----|
D|-----2-----------2--------2--2--------2--2-----3----------3----------3----------3-----------|
A|--0--------0-----------3-----------3--------------------------------------------------------|
E|--------------------------------------------------------------------------------------------|

  ..Remember the sparks that caught the wind and torched the field..
e|-----0-----------0-----------0--0--------0-----------0--3-------0----------0--3-------0--0--|
B|-----1--1--------1--1--------1-----------1--1--------1----------1--1-------1----------1-----|
G|-----2--------2--2-----------0-----------0--------2--2-------2--2-------2--2-------2--2-----|
D|-----2-----------2--------2--2--------2--2-----3----------3----------3----------3-----------|
A|--0--------0-----------3-----------3--------------------------------------------------------|
E|--------------------------------------------------------------------------------------------|

  ..We stomped at the grass in the cracks and the crust to no avail..
e|-----0-----------0-----------0--0--------0-----------0--3-------0----------0--3-------0--0--|
B|-----1--1--------1--1--------1-----------1--1--------1----------1--1-------1----------1-----|
G|-----2--------2--2-----------0-----------0--------2--2-------2--2-------2--2-------2--2-----|
D|-----2-----------2--------2--2--------2--2-----3----------3----------3----------3-----------|
A|--0--------0-----------3-----------3--------------------------------------------------------|
E|--------------------------------------------------------------------------------------------|

  ..And I'll get burned if the wind takes more than it should..
e|-----0-----------0-----------0--0--------0-----------0--3-------0----------0--3-------0--0--|
B|-----1--1--------1--1--------1-----------1--1--------1----------1--1-------1----------1-----|
G|-----2--------2--2-----------0-----------0--------2--2-------2--2-------2--2-------2--2-----|
D|-----2-----------2--------2--2--------2--2-----3----------3----------3----------3-----------|
A|--0--------0-----------3-----------3--------------------------------------------------------|
E|--------------------------------------------------------------------------------------------|

  ..And hey, it's a crazy life..
e|-----0-----------0-----------0--0--------0-----------0--3-------0----------0--3-------0--0--|
B|-----1--1--------1--1--------1-----------1--1--------1----------1--1-------1----------1-----|
G|-----2--------2--2-----------0-----------0--------2--2-------2--2-------2--2-------2--2-----|
D|-----2-----------2--------2--2--------2--2-----3----------3----------3----------3-----------|
A|--0--------0-----------3-----------3--------------------------------------------------------|
E|--------------------------------------------------------------------------------------------|

VERSE 2:

..I got a mark, a stain from pitch and it don't wash out..
e|-----0-----------0-----------0--0--------0-----------0--3-------0----------0--3-------0--0--|
B|-----1--1--------1--1--------1-----------1--1--------1----------1--1-------1----------1-----|
G|-----2--------2--2-----------0-----------0--------2--2-------2--2-------2--2-------2--2-----|
D|-----2-----------2--------2--2--------2--2-----3----------3----------3----------3-----------|
A|--0--------0-----------3-----------3--------------------------------------------------------|
E|--------------------------------------------------------------------------------------------|

  ..And you never know what's buried there unless you dig around..
e|-----0-----------0-----------0--0--------0-----------0--3-------0----------0--3-------0--0--|
B|-----1--1--------1--1--------1-----------1--1--------1----------1--1-------1----------1-----|
G|-----2--------2--2-----------0-----------0--------2--2-------2--2-------2--2-------2--2-----|
D|-----2-----------2--------2--2--------2--2-----3----------3----------3----------3-----------|
A|--0--------0-----------3-----------3--------------------------------------------------------|
E|--------------------------------------------------------------------------------------------|

  ..When we get back we can clean it up and show it off..
e|-----0-----------0-----------0--0--------0-----------0--3-------0----------0--3-------0--0--|
B|-----1--1--------1--1--------1-----------1--1--------1----------1--1-------1----------1-----|
G|-----2--------2--2-----------0-----------0--------2--2-------2--2-------2--2-------2--2-----|
D|-----2-----------2--------2--2--------2--2-----3----------3----------3----------3-----------|
A|--0--------0-----------3-----------3--------------------------------------------------------|
E|--------------------------------------------------------------------------------------------|

  ..I got plenty of bones been chipped from falling down..
e|-----0-----------0-----------0--0--------0-----------0--3-------0----------0--3-------0--0--|
B|-----1--1--------1--1--------1-----------1--1--------1----------1--1-------1----------1-----|
G|-----2--------2--2-----------0-----------0--------2--2-------2--2-------2--2-------2--2-----|
D|-----2-----------2--------2--2--------2--2-----3----------3----------3----------3-----------|
A|--0--------0-----------3-----------3--------------------------------------------------------|
E|--------------------------------------------------------------------------------------------|

  ..And hey, what a crazy life..
e|-----0-----------0-----------0--0--------0-----------0--3-------0----------0--3-------0--0--|
B|-----1--1--------1--1--------1-----------1--1--------1----------1--1-------1----------1-----|
G|-----2--------2--2-----------0-----------0--------2--2-------2--2-------2--2-------2--2-----|
D|-----2-----------2--------2--2--------2--2-----3----------3----------3----------3-----------|
A|--0--------0-----------3-----------3--------------------------------------------------------|
E|--------------------------------------------------------------------------------------------|

        Am          C          F
  ..And hey, what a crazy life..


  ..Ooooh-oooh-ooooh-oooh.. [x2]
e|-----0-----------0-----------0--0--------0-----------0--3-------0----------0--3-------0--0--|
B|-----1--1--------1--1--------1-----------1--1--------1----------1--1-------1----------1-----|
G|-----2--------2--2-----------0-----------0--------2--2-------2--2-------2--2-------2--2-----|
D|-----2-----------2--------2--2--------2--2-----3----------3----------3----------3-----------|
A|--0--------0-----------3-----------3--------------------------------------------------------|
E|--------------------------------------------------------------------------------------------|

   Am    C    F
 ..Ooooh-oooh-ooooh-oooh.. [x2]


OUTRO:

       E                                   F (Strum)
E|-----0-----------0-----------0-----------0-------|
B|-----0--0--------0--3--------3--3--------1-------|
G|-----1--------1--1--------1--1--------1--2-------|
D|-----2-----------2-----------2-----------3-------|
A|--2--------2-----------2-----------2-----0-------|
E|-------------------------------------------------|

    C        G       Am
..I aaaaaaaaaaaaaaaaaaam.. [x5]
Tap to rate this tab
# A B C D E F G H I J K L M N O P Q R S T U V W X Y Z