Song name
# A B C D E F G H I J K L M N O P Q R S T U V W X Y Z

Nathaniel Sutton - Is This What Loves Like Acoustic tab

-------------------------------------------------------------------------------
			     IS THIS WHAT LOVE'S LIKE? - Nathaniel Sutton
-------------------------------------------------------------------------------
Tabbed by: DARKSTAR333
Email:bryan1514@hotmail.com
Watch: http://www.youtube.com/watch?v=GMvBCA665II

Tuning: Normal EADGBe

Basics of the song, not hard to figure out how many times to play each bar after hearing 
it. Alternates the chorus at the end of the song.

e|-----7--------2--------3----------------|
B|---8---8----3---3----3---3---3-----3----|
G|--0-0-0----0-0-0----0-0-0---0-0---0-0---|
D|----------------------------------------|
A|-7--------2--------3-------2-----0---/--|
E|----------------------------------------|

   vv^vvv^vvv^ vv^vvv^vvv^ vv^vvv^vvv^vv^vvv^vvv^
e|-77777777777-22222222222-3333333333333333333333--|
B|-88888888888-33333333333-3333333333333333333333--|
G|-00000000000-00000000000-0000000000000000000000--|
D|-00000000000-00000000000-0000000000000000000000--|
A|-77777777777-22222222222-3333333333333333333333--|
E|-00000000000-00000000000-0000000000000000000000--|
Tap to rate this tab
 
# A B C D E F G H I J K L M N O P Q R S T U V W X Y Z