Guitaretab - guitar tabs
Song name
# A B C D E F G H I J K L M N O P Q R S T U V W X Y Z

National Product - Love Me tab

This is just the begining of the song,
I'll add the rest when i figure it out

capo-6th fret
[ Tab from: http://www.guitaretab.com/n/national-product/156545.html ]
E-------------------------------------------------------|
B------1--------1-----------1--------1-------1------1---|
G--------0---------0-----------0--------0------0------0-|
D---2-------0---------0h2--------3--------2------0------|
A-------------------------------------------------------|
E-------------------------------------------------------|

E------0------0------0---------------------------------|
B---------1------1------1-----1------------------------|
G------------0------0------0---------------------------|
D---3--------------------------------------------------|
A------------------------------------------------------|
E------------------------------------------------------|
Related for Love Me tab
Love Me chords by National Product