Song name
# A B C D E F G H I J K L M N O P Q R S T U V W X Y Z

National Sunday Law - To Hell With You tab

Artist: National Sunday Law
Title: To Hell With You
Album: Volume 1: Chaos Bliss (2007)
Label: Sonic Frontiers

The band's myspace: http://www.myspace.com/nationalsundaylaw

Fully tabbed by Goad.
If you have any questions or whatever, just leave a comment.

.  = palm mute
() = note held from pervious measure

Dropped C Tuning - 4/4 Time
===============

FUNDAMENTAL RIFF (after the ambient intro)
   Guitar 1
D|------------------------------------|
A|------------------------------------|
F|------------------------------------|
C|-9-0-0-0--9-0-0-0--9-0-0-0--9-0-0-0-|
G|-9-0-0-0--9-0-0-0--9-0-0-0--9-0-0-0-|
C|-9-0-0-0--9-0-0-0--9-0-0-0--9-0-0-0-| x4
     . . .    . . .    . . .    . . .

PREPARE FOR BATTLE RIFF (repeat x2)
   Guitar 2 (keyboard arranged for guitar)
D|------------------------------------|------------------------------------|
A|-7--------------------------8-------|-7-----------5--7-------------------|
F|------------------------------------|------------------------------------|
C|------------------------------------|------------------------------------|
G|------------------------------------|------------------------------------|
C|------------------------------------|------------------------------------|
 | Guitar 1
D|------------------------------------|------------------------------------|
A|------------------------------------|------------------------------------|
F|------------------------------------|------------------------------------|
C|-9-0-0-0--9-0-0-0--9-0-0-0--9-0-0-0-|-9-0-0-0--9-0-0-0--9-0-0-0--9-0-0-0-|
G|-9-0-0-0--9-0-0-0--9-0-0-0--9-0-0-0-|-9-0-0-0--9-0-0-0--9-0-0-0--9-0-0-0-|
C|-9-0-0-0--9-0-0-0--9-0-0-0--9-0-0-0-|-9-0-0-0--9-0-0-0--9-0-0-0--9-0-0-0-|
     . . .    . . .    . . .    . . .     . . .    . . .    . . .    . . .

INTO THE MIGHTY FOREST RIFF
   Guitar 2 (keyboard arranged for guitar)
D|-8------------------9---------------|------------------------------------|
A|------------------------------------|-7----------------------------------|
F|------------------------------------|------------------------------------|
C|------------------------------------|------------------------------------|
G|------------------------------------|------------------------------------|
C|------------------------------------|------------------------------------|
 | Guitar 1
D|------------------------------------|------------------------------------|
A|------------------------------------|------------------------------------|
F|------------------------------------|------------------------------------|
C|-9-0-0-0--9-0-0-0--9-0-0-0--9-0-0-0-|-9-0-0-0--9-0-0-0--9-0-0-0--9-0-0-0-|
G|-9-0-0-0--9-0-0-0--9-0-0-0--9-0-0-0-|-9-0-0-0--9-0-0-0--9-0-0-0--9-0-0-0-|
C|-9-0-0-0--9-0-0-0--9-0-0-0--9-0-0-0-|-9-0-0-0--9-0-0-0--9-0-0-0--9-0-0-0-|
     . . .    . . .    . . .    . . .     . . .    . . .    . . .    . . .

   Guitar 2 (keyboard arranged for guitar)
D|-9------------------8---------------|------------------------------------|
A|------------------------------------|-7----------------------------------|
F|------------------------------------|------------------------------------|
C|------------------------------------|------------------------------------|
G|------------------------------------|------------------------------------|
C|------------------------------------|------------------------------------|
 | Guitar 1
D|------------------------------------|------------------------------------|
A|------------------------------------|------------------------------------|
F|------------------------------------|------------------------------------|
C|-9-0-0-0--9-0-0-0--9-0-0-0--9-0-0-0-|-9-0-0-0--9-0-0-0--9-0-0-0--9-0-0-0-|
G|-9-0-0-0--9-0-0-0--9-0-0-0--9-0-0-0-|-9-0-0-0--9-0-0-0--9-0-0-0--9-0-0-0-|
C|-9-0-0-0--9-0-0-0--9-0-0-0--9-0-0-0-|-9-0-0-0--9-0-0-0--9-0-0-0--9-0-0-0-|
     . . .    . . .    . . .    . . .     . . .    . . .    . . .    . . .

SLIT THY GUTS RIFF
   Guitar 2
D|------------------------------------------|
A|------------------------------------------|
F|------------------------------------------|
C|-9-0-0-0--9-0-0-0--9-0-0-0--9-10-10-10-10-|
G|-9-0-0-0--9-0-0-0--9-0-0-0--9-10-10-10-10-|
C|-9-0-0-0--9-0-0-0--9-0-0-0--9-10-10-10-10-| x5
     . . .    . . .    . . .

D|------------------------------------------|
A|------------------------------------------|
F|------------------------------------------|
C|----------------------------9-10-10-10-10-|
G|----------------------------9-10-10-10-10-|
C|-9-0-0-0--10-0-0-0--9-0-0---9-10-10-10-10-| x3


** Repeat FUNDAMENTAL RIFF


MYSTIC RIFF OF TIME
   Guitar 2 (keyboard arranged for guitar)
D|------------------------------------|------------------------------------|
A|-7----------------------------------|-(7)--------------------------------|
F|------------------------------------|------------------------------------|
C|------------------------------------|------------------------------------|
G|------------------------------------|------------------------------------|
C|------------------------------------|------------------------------------|
 | Guitar 1
D|------------------------------------|------------------------------------|
A|------------------------------------|------------------------------------|
F|------------------------------------|------------------------------------|
C|-9-0-0-0--9-0-0-0--9-0-0-0--9-0-0-0-|-9-0-0-0--9-0-0-0--9-0-0-0--9-0-0-0-|
G|-9-0-0-0--9-0-0-0--9-0-0-0--9-0-0-0-|-9-0-0-0--9-0-0-0--9-0-0-0--9-0-0-0-|
C|-9-0-0-0--9-0-0-0--9-0-0-0--9-0-0-0-|-9-0-0-0--9-0-0-0--9-0-0-0--9-0-0-0-|
     . . .    . . .    . . .    . . .     . . .    . . .    . . .    . . .

   Guitar 2 (keyboard arranged for guitar)
D|------------------------------------|------------------------------------|
A|-10---------------------------------|-(10)-------------------------------|
F|------------------------------------|------------------------------------|
C|------------------------------------|------------------------------------|
G|------------------------------------|------------------------------------|
C|------------------------------------|------------------------------------|
 | Guitar 1
D|------------------------------------|------------------------------------|
A|------------------------------------|------------------------------------|
F|------------------------------------|------------------------------------|
C|-9-0-0-0--9-0-0-0--9-0-0-0--9-0-0-0-|-9-0-0-0--9-0-0-0--9-0-0-0--9-0-0-0-|
G|-9-0-0-0--9-0-0-0--9-0-0-0--9-0-0-0-|-9-0-0-0--9-0-0-0--9-0-0-0--9-0-0-0-|
C|-9-0-0-0--9-0-0-0--9-0-0-0--9-0-0-0-|-9-0-0-0--9-0-0-0--9-0-0-0--9-0-0-0-|
     . . .    . . .    . . .    . . .     . . .    . . .    . . .    . . .

   Guitar 2 (keyboard arranged for guitar)
D|------------------------------------|------------------------------------|
A|-7h8p7h8p7--------------------------|-(7)--------------------------------|
F|------------------------------------|------------------------------------|
C|------------------------------------|------------------------------------|
G|------------------------------------|------------------------------------|
C|------------------------------------|------------------------------------|
 | Guitar 1
D|------------------------------------|------------------------------------|
A|------------------------------------|------------------------------------|
F|------------------------------------|------------------------------------|
C|-9-0-0-0--9-0-0-0--9-0-0-0--9-0-0-0-|-9-0-0-0--9-0-0-0--9-0-0-0--9-0-0-0-|
G|-9-0-0-0--9-0-0-0--9-0-0-0--9-0-0-0-|-9-0-0-0--9-0-0-0--9-0-0-0--9-0-0-0-|
C|-9-0-0-0--9-0-0-0--9-0-0-0--9-0-0-0-|-9-0-0-0--9-0-0-0--9-0-0-0--9-0-0-0-|
     . . .    . . .    . . .    . . .     . . .    . . .    . . .    . . .

   Guitar 2 (keyboard arranged for guitar)
D|------------------------------------|------------------------------------|
A|-10---------------------------------|-(10)-------------------------------|
F|------------------------------------|------------------------------------|
C|------------------------------------|------------------------------------|
G|------------------------------------|------------------------------------|
C|------------------------------------|------------------------------------|
 | Guitar 1
D|------------------------------------|------------------------------------|
A|------------------------------------|------------------------------------| x3
F|------------------------------------|------------------------------------|
C|-9-0-0-0--9-0-0-0--9-0-0-0--9-0-0-0-|-9-0-0-0--9-0-0-0--9-0-0-0--9-0-0-0-|
G|-9-0-0-0--9-0-0-0--9-0-0-0--9-0-0-0-|-9-0-0-0--9-0-0-0--9-0-0-0--9-0-0-0-|
C|-9-0-0-0--9-0-0-0--9-0-0-0--9-0-0-0-|-9-0-0-0--9-0-0-0--9-0-0-0--9-0-0-0-|
     . . .    . . .    . . .    . . .     . . .    . . .    . . .    . . .

THE END!
Tap to rate this tab
# A B C D E F G H I J K L M N O P Q R S T U V W X Y Z