Guitaretab - guitar tabs
Song name
# A B C D E F G H I J K L M N O P Q R S T U V W X Y Z

Nations Afire - The Once Forgotten tab

---------------------------------------------------------------
Nations Afire - The Once Forgotten
---------------------------------------------------------------
Tabbed by: Malk  (i refuse to)


Natural Harmonics - *
PM - .


INTRO(x2)
Two Guitars Played This
D#|------------------------------------|------------------------------------|
A#|------------------------------------|------------------------------------|
F#|-9-9-9-4-4-4-2-2-2-4-4-4-4-4-4-4-4-4|-2-2-2-4-4-4-5-5-5-4-4-4-4-4-4-4-4-4|
C#|------------------------------------|------------------------------------|
G#|-7-7-7-2-2-2-0-0-0-2-2-2-2-2-2-2-2-2|-0-0-0-2-2-2-3-3-3-2-2-2-2-2-2-2-2-2|
D#|------------------------------------|------------------------------------|

D#|------------------------------------|--------------|
A#|------------------------------------|--------------|
F#|-9-9-9-4-4-4-2-2-2-4-4-4-4-4-4-4-4-4|-2-2-2-4-4-4-2|
C#|------------------------------------|--------------|
G#|-7-7-7-2-2-2-0-0-0-2-2-2-2-2-2-2-2-2|-0-0-0-2-2-2-0|
D#|------------------------------------|--------------|

VERSE
1 Guitar
D# |--------------|
A# |--------------|
F# |--------------|
C# |-----7*-------|
G# |---7*--7*--7*-|
D# |-7*------7*---|

       ..   ..   ..
D# |-----------------------|------------------------------------|
A# |-----------------------|------------------------------------|
F# |-9-99-9-99-9-99-9-9-9-9|-2-2-2-4-4-4-5-5-5-4-4-4-4-4-4-4-4-4|
C# |-----------------------|------------------------------------|
G# |-7-77-7-77-7-77-7-7-7-7|-0-0-0-2-2-2-3-3-3-2-2-2-2-2-2-2-2-2|
D# |-----------------------|------------------------------------|
2 Guitar
D# |-----------------------|------------------------------------|
A# |-----------------------|------------------------------------|
F# |-----------------------|------------------------------------|
C# |-----------------------|-5555555555555555555555555555555555-|
G# |-----------------------|-3333333333333333333333333333333333-|
D# |-----------------------|------------------------------------|
[ Tab from: http://www.guitaretab.com/n/nations-afire/192338.html ]
1 Guitar
      ..   ..   ..
D# |-----------------------|------------------------------------|
A# |-----------------------|------------------------------------|
F# |-9-99-9-99-9-99-9-9-9-9|-2-2-2-4-4-4-5-5-5-4-4-4-4-4-4-4-4-4|
C# |-----------------------|------------------------------------|
G# |-7-77-7-77-7-77-7-7-7-7|-0-0-0-2-2-2-3-3-3-2-2-2-2-2-2-2-2-2|
D# |-----------------------|------------------------------------|
2 Guitar
D# |-----------------------|------------------------------------|
A# |-----------------------|------------------------------------|
F# |-----------------------|------------------------------------|
C# |-----------------------|-5555555555555555555555555555555555-|
G# |-----------------------|-3333333333333333333333333333333333-|
D# |-----------------------|------------------------------------|
1 Guitar
always
D# |------|
A# |------|
F# |-9-9-9|
C# |------|
G# |-7-7-7|
D# |------|

2 Guitar
Listen this moment
D# |-----|
A# |-----|
F# |-555-|
C# |-555-|
G# |-333-|
D# |-----|

CHORUS (x2)
1 Guitar
D# |-----------------------------|
A# |-----------------------------|
F# |-222222-555555--------777777-|
C# |-222222-555555-555555-777777-|
G# |-000000-333333-555555-555555-|
D# |---------------333333--------|
2 Guitar
D# |-----------------------------------------|
A# |-----------------------------------------|
F# |-999999-121212121212-777777-141414141414-|
C# |-----------------------------------------|
G# |-777777-101010101010-555555-121212121212-|
D# |-----------------------------------------|

INTRO (x1)

VERSE

CHORUS (x2)

BRIDGE (x4)
1 guitar
     ...... ...... ...... ......   ...... ...... ...... ......
D# |-----------------------------|-----------------------------|
A# |-----------------------------|-----------------------------|
F# |-----------------------------|-----------------------------|
C# |-222222-555555-555555-777777-|-222222-555555-555555-777777-|
G# |-000000-333333-555555-555555-|-000000-333333-555555-555555-|
D# |---------------333333--------|---------------333333--------|

2 Guitar
Listen this moment
D# |------------------------------------|
A# |------------------------------------|
F# |-2-2-2-4-4-4-5-5-5-4-4-4-4-4-4-4-4-4|
C# |------------------------------------|
G# |-0-0-0-2-2-2-3-3-3-2-2-2-2-2-2-2-2-2|
D# |------------------------------------|

CHORUS (x4)
2 Guitar
Listen this moment
D# |------------------------------------|
A# |------------------------------------|
F# |-2-2-2-4-4-4-5-5-5-4-4-4-4-4-4-4-4-4|
C# |------------------------------------|
G# |-0-0-0-2-2-2-3-3-3-2-2-2-2-2-2-2-2-2|
D# |------------------------------------|

www.myspace.com/nationsafire
To play as in the original it is necessary to listen to a song.
Related for The Once Forgotten tab
Advertisement will be closed in 10 seconds