Song name
# A B C D E F G H I J K L M N O P Q R S T U V W X Y Z

Natiruts - Quero Ser Feliz Tambem tab

-------------------------------------------------------------------------------
			     Quero Ser Feliz Também - Natiruts
-------------------------------------------------------------------------------
Tabbed by: Nuno Lima
Email: gandy_lima@hotmail.com

Tuning: standard



Intro

e-----6-6-9-9-6-6----6-4-4-6-6-4----4|
B-----7-7-7-7-7-7----7-5-5-7-7-5----5|
G-----6-6-6-6-6-6----6-4-4-6-6-4----4|  X4
D------------------------------------|
A------------------------------------|
E------------------------------------|


Verso
e-----6--6--6--6---4--4--4--4--------|
B-----7--7--7--7---5--5--5--5--------|
G-----6--6--6--6---4--4--4--4--------|  X10
D------------------------------------|
A------------------------------------|
E------------------------------------|


Refrao
e-----6*-6--6*-6--6*-6--6*-6---4*-4--4*-4--4*-4--4*-4-------|
B-----7*-7--7*-7--7*-7--7*-7---5*-5--5*-5--5*-5--5*-5-------|
G-----6*-6--6*-6--6*-6--6*-6---4*-4--4*-4--4*-4--4*-4-------|  X2
D-----------------------------------------------------------|
A-----------------------------------------------------------|
E-----------------------------------------------------------|

* - deixa soar ( let ring )


E tudo. Abc. ;)


************************************

| /   slide up
| \   slide down
| h   hammer-on
| p   pull-off
| ~   vibrato
| +   harmonic
| x   Mute note
| b   Bend
| pb  Pre-bend
| br  Bend release
| pbr Pre-bend release
| brb Bend release bend

************************************
Tap to rate this tab
 
# A B C D E F G H I J K L M N O P Q R S T U V W X Y Z