Song name
# A B C D E F G H I J K L M N O P Q R S T U V W X Y Z

Natiruts - Sorri Sou Rei tab

Intro:

E|----------------------------------------------------------------------|
B|-----5----------------3----------------5-----------------5------------|
G|---5---5---7/9-7----4---4---7/9-7----5---5----4-5-2----5---5---4-5-2--|
D|-7-------7--------5-------5--------7-------7---------7-------7--------|
A|----------------------------------------------------------------------|
E|----------------------------------------------------------------------|



E|----------------------------------------------------------------------|
B|-----5----------------3-5-3------------5-----------------5------------|
G|---5---5---7/9-7----4-------7/9-7----5---5----4-5-2----5---5---4-5-2--|
D|-7-------7--------5----------------7-------7---------7-------7--------|
A|----------------------------------------------------------------------|
E|----------------------------------------------------------------------|




Dm                               G
Quando a esperança de uma noite de amor
         Am
lhe trouxer vontade para viver mais
Dm                        G
E a promessa que a chance terminou
         Am
É bobagem , é melhor deixar pra trás



           Dm  
Eu tô cansado de sofrer
           G
Quero dançar, sentir calor
       Am
E poder só olhar o universo em torno de você
             Dm                G
Brilhando em vida, sorrindo à toa
             Am
Só vibrando, amor e paz
        Dm                G
Sinto a noite, penso em você
              Am
Lembro como é bom amar


                               Dm       G         Am
Quando você se foi chorei, chorei, chorei
                         Dm         G       Am
Agora que voltou sorri, sorri, sou rei.
                               Dm       G         Am
Quando você se foi chorei, chorei, chorei
                         F        G       Am
Agora que voltou sorri, sorri, sou rei.


E|-------------------------------------------------------0-|
B|-------------------------------------------------------0-|
G|-------------------------------------------------------0-|
D|---------------------------------------------------------|
A|---------------------------------------3---5/7---3-------|
E|--5---5-5---5---5-5---5---5-5---3---5---------------5----|



E|-------------0|-------------------0|
B|-------------0|-------------------0|
G|-------------0|-------------------0|
D|--------------|--------------------|
A|--------------|--------------------|
E|--0--3--5-----|-0--3--0--3--5------|



E|-----------------------|
B|-----------------------|
G|-----------------------|
D|-------------2---------|
A|----------3----3---1---| 
E|--1h3--5---------------|


A#                                               A  
  Saiba que o simples perfume de uma flor
       Dm
Pode vir a ser um grande amor na sua vida
A#                          A  
   Não gaste palavras pra viver
    Dm
De iludir os seus sonhos tão raros com mentiras


A#                           A  
 Não maltrate o coração
            Dm
Que dedicou o seu sorriso, as suas batidas
A#                         A  
  E será livre pra sentir
                        Dm
Os seios de uma paixão
     A7
E ser uma história linda


Dm
Diga que me adora
A#                     A
Deixe o orgulho e venha
            Dm
Porque já está na hora
     A#                   A                  Dm
Pra gente se encontrar e sermos um

Mas não demora
      A#                 A                   Dm
Que é pra chama não desencantar
 A#        A      Gm
Se esvair no ar
    C                     F7M        
E só restar lembranças


           Dm  
Eu tô cansado de sofrer
           G
Quero dançar, sentir calor
       Am
E poder só olhar o universo em torno de você
             Dm                G
Brilhando em vida, sorrindo à toa
             Am
Só vibrando, amor e paz


       Dm             G
Vejo a lua, lembro do sonho
                Am
Torço pra realizar
        Dm              G
Sinto a noite, penso em você
              Am
Lembro como é bom amar


                               Dm       G         Am
Quando você se foi chorei, chorei, chorei
                         Dm         G       Am
Agora que voltou sorri, sorri, sou rei.
                               Dm       G         Am
Quando você se foi chorei, chorei, chorei
                         F        G       Am
Agora que voltou sorri, sorri, sou rei 
Tap to rate this tab
 
# A B C D E F G H I J K L M N O P Q R S T U V W X Y Z