Song name
# A B C D E F G H I J K L M N O P Q R S T U V W X Y Z

Nattefrost - The Gate Of Nanna tab

Help us improve GuitareTab! Take a short survey!
Hey! this is my first tab. I'm pretty sure it's right please rate and leave a comment 
if you think I have missed anything email me at james_caveman_666@hotmail.co.uk
=D
/=slide down
\=slide up

At the start of the song just strum this once but have the volume on 0 then turn it up 
make it sound more like the actual song.

e|-------------|
b|-------------|
g|-------------|
d|-------4-----|
a|-------2-----|
e|-------------|


e|-------------------------------------|
b|-------------------------------------|
g|-------------------------------------|      x7
d|---4--4--44--4/6-6\4--4--44--4\33----|
a|---2--2--22--2/4-4\2--2--22--2\11----|
e|-------------------------------------|


e|---------------------------------------------|
b|---------------------------------------------|
g|---------------------------------------------|     x2
d|--444444444444/6---66\444444444444\3---33----|
a|--222222222222/4---44\222222222222\1---11----|
e|---------------------------------------------|


e|---------------------------------------------|
b|---------------------------------------------|
g|---------------------------------------------|      x4
d|---4----4----44---4/6-6\4--4-----44---4\33---|
a|---2----2----22---2/4-4\2--2-----22---2\11---|
e|---------------------------------------------|


e|------------------------------------------         e|-----------|
b|---------------------------------------------|     b|-----------|
g|---------------------------------------------| x4  g|-----------|
d|--444444444444/6---66\444444444444\3---33----|     d|-4---------|
a|--222222222222/4---44\222222222222\1---11----|     a|-2---------|
e|---------------------------------------------|     e|-----------|


and im not 100% sure about the end but i think you can figure it out yourself
all those power chords is the only chords in the song.
Related for The Gate Of Nanna tab