Guitaretab - guitar tabs
Song name
# A B C D E F G H I J K L M N O P Q R S T U V W X Y Z

Naughty Boy - La La La tab

-------------------------------------------------------------------------------
                             La La LA - Naughty Boy
-------------------------------------------------------------------------------
Tabbed by: JGloz

Tuning: Standard

Intro riff:
[ Tab from: http://www.guitaretab.com/n/naughty-boy/357717.html ]
e|----14-17-16-14------------16-14-12-------14-17----14-17-------------------|
B|-14-------------14---14-17----------14-15-------15-------------------------|
G|---------------------------------------------------------------------------|
D|---------------------------------------------------------------------------|
A|---------------------------------------------------------------------------|
E|---------------------------------------------------------------------------|


e|-------14--17--16-14-16--------16-14-12-14--------14--------14-------16----|
B|---14-------------------14--17--------------12-15-----12-15----14h17-------|
G|------------------------------------------------------------------------16-|
D|---------------------------------------------------------------------------|
A|---------------------------------------------------------------------------|
E|---------------------------------------------------------------------------|
Related for La La La tab
La La La chords by Naughty Boy