Song name
# A B C D E F G H I J K L M N O P Q R S T U V W X Y Z

Naughty Boy - La La La tab

This is my first tab I used in my cover (http://www.youtube.com/watch?v=krFmpNMR7rs)

Chords: F#m, C#m, Bm, E
or
capo on 2nd: Em, Bm, Am, C

I made 2 versions, you can combine both of them and add some slides or bends if you like.


Version 1:

intro

E-------------|-------------|--------------------------|
B-------------|-------------|--------------------------|
G-----2-1-----|-----1-------|-----2-----2--------------|
D---4-----4---|---2---4-2---|-0-4---0-4----------------|
A-4---------4-|-4---------4-|--------------------------|
E-------------|-------------|--------------------------|

verse

E------------------------------------------------------|
B---5--------------------------------------------------|
G-6---4--2-4-6-4-2-----4-6-4-2-------------------------|
D------------------4-2---------4-2---------------------|
A------------------------------------------------------|
E------------------------------------------------------|



E-----------------|-------------------------------------|
B-----------------|-------------------------------------|
G---2-4-6-4-2-----|---2-4-6-4---------------------------|
D-4-----------4-2-|-4---------2-------------------------|
A-----------------|-------------------------------------|
E-----------------|-------------------------------------|


chorus:

E---------------------|---------------------------------|
B---------------------|---------------------------------|
G---6-6-6-6-6-4-----4-|---4-6-4-2-----------------------|
D-4-------------7-4---|-4---------4-2-4-4-4-------------|
A---------------------|---------------------------------|
E---------------------|---------------------------------|

E---------------------|---------------------------------|
B---------------------|---------------------------------|
G---6-6-6-6-6-4-----4-|---4-6-4-2-----4-4-4-6-4-2-------|
D-4-------------7-4---|-4---------4-2-------------4-2---|
A---------------------|---------------------------------|
E---------------------|---------------------------------|

(la la la part)
E-------------------------------------------------------|
B-------------------------------------------------------|
G-------------------------------------------------------|
D-4-7-------4---4-4-4-/7--------------------------------|
A-----4-4-4---7-----------4-4---------------------------|
E-------------------------------------------------------|



Version 2:


Intro:

E---------------|-------------|----------------------------|
B----7-10-9-7---|---5-9-7-5---|--7-10---7-10---------------|
G--6----------6-|-6---------5-|-7------7-------------------|         x2
D---------------|-------------|----------------------------|
A---------------|-------------|----------------------------|
E---------------|-------------|----------------------------|

Verse:

E--9-12----------9-----------|----9------------------------|
B-------12-10-12---12-10-----|-12---12-10------------------|
G------------------------11-9|------------11-9-------------|        x2
D----------------------------|-----------------------------|
A----------------------------|-----------------------------|
E----------------------------|-----------------------------|

E----------9------------|----------9-----------------------|
B----10-12---12-10------|----10-12---12--------------------|
G-11---------------11-9-|-11------------9------------------|
D-----------------------|----------------------------------|
A-----------------------|----------------------------------|
E-----------------------|----------------------------------|


Chorus 1:

E----9-9-9-9-9---------7-|---7-9-7-5-----------------------|
B--7-----------12-10-7---|-7---------7-5-7-7-7-------------|
G------------------------|---------------------------------|
D------------------------|---------------------------------|
A------------------------|---------------------------------|
E------------------------|---------------------------------|

E----9-9-9-9-9---------7-|---7-9-7-5-----7-7-7-9-7-5-------|
B--7-----------12-10-7---|-7---------7-5-------------7-5---|
G------------------------|---------------------------------|
D------------------------|---------------------------------|
A------------------------|---------------------------------|
E------------------------|---------------------------------|

Chorus 2 (La la la):

E----------------------------------------------------------|
B-7-10-------7-5-7-7-7-7-/10-------------------------------|
G------6-6-6------------------6-6--------------------------|
D----------------------------------------------------------|
A----------------------------------------------------------|
E----------------------------------------------------------|
Tap to rate this tab
# A B C D E F G H I J K L M N O P Q R S T U V W X Y Z