Song name
# A B C D E F G H I J K L M N O P Q R S T U V W X Y Z

Nausea - Therapy tab

  1         play 4X's
------------------------------------------|
------------------------------------------|
-9-9-9-------10-10-10----------10-10-10---|
-9-9-9-9-9-9-10-10-10-10-10-10-10-10-10---|
-7-7-7-9-9-9--8--8--8-10-10-10--8--8--8---|
-------7-7-7-----------8--8--8------------|

  2           play 8X's
-------------------------------------------------|
-------------------------------------------------|
-----9--------------10---------------------------|
---9--------9----10---------10-----10------10----|
-7--------9----8---------10----------------------|
--------7--------------8--------8-------8--------|


   "this is for the bass" 8X's on the A & E cord

------9-10-9---9----9-10-9---9-|
----7--------7----8--------8---|


3         play 2X

-------------------------------------10--------------|
-------------------------------------10--------------|
-9-9-9---------10------9-9-9---------10--------------|
-9-9-9--9-9-9--10------9-9-9--9-9-9--10-----10--9----|
-7-7-7--9-9-9---8------7-7-7--9-9-9---8-----10--9----|
--------7-7-7-----------------7-7-7----------8--7----|
Tap to rate this tab
 
# A B C D E F G H I J K L M N O P Q R S T U V W X Y Z