Song name
# A B C D E F G H I J K L M N O P Q R S T U V W X Y Z

Nautilus Pompilius - Air tab

Help us improve GuitareTab! Take a short survey!
1------------------------------------------------------------------------|
2------------------------------------------------------------------------|
3--3-3-3-3-2-2---0-0-0-0-------------------------------------------------|
4------------------------3-3---2-2-2-2-2-2-0---2-2-2-2-0-0---------------|
5------------------------------------------------------------------------|
6------------------------------------------------------------------------|

1------------------------------------------------------------------------|
2------------------------------------------------------------------------|
3--3-3-3-3-2-2---0-0-0-0-------------------------------------------------|
4------------------------3-3---2-2-2-2-2-2-0---2-2-2-2-0-----------------|
5------------------------------------------------------------------------|
6------------------------------------------------------------------------|

1------------------------------------------------------------------------|
2----------------------------------------------------------1-4-------1-4-|
3--------------------------------0-3-------0-3-2-0-------0---------0-----|
4----0-2-3-----0-2-3-2-0-------0---------0---------3---1---------1-------|
5--0---------0-----------3---1---------1---------------------------------|
6------------------------------------------------------------------------|

1------------------------------------------------------------------------|
2--3--1-----------------------------------------1------------------------|
3-------3-------3-1-0-------------------------0---3-2-0------------------|
4-------------1-------3-1------3-1-0--------0-----------3----------------|
5-----------3----------------1-------3-1---------------------------------|
6--------------------------3---------------------------------------------|

1------------------------------------------------------------------------|
2----------------------------------------------------------1-4-------1-4-|
3--------------------------------0-3-------0-3-2-0-------0---------0-----|
4------0-3-------0-3-2-0-------0---------0---------3---1---------1-------|
5----0---------0---------3---1---------1---------------------------------|
6--1---------1-----------------------------------------------------------|

1------------------------------------------------------------------------|
2--3--1-----------------------------------------1------------------------|
3-------3-------3-1-0-------------------------0---3-2-0------------------|
4-------------1-------3-1------3-1-0--------0-----------3-------0-3------|
5-----------3----------------1-------3-1----------------------0----------|
6--------------------------3--------------------------------1------------|
Related for Air tab