Nautilus Pompilius - Clean Deamon Chisty Bes chords

Highlighted       Show chord diagrams
vstupleie (This is intro)
E|-----------------------5-||
B|------3-3/5------3-3/5---||
G|--2b4--------2b4---------||

mejdu kupletami idut quinty (power chords between couplets)

E|---------------11--12--11--12--10||
B|---------------11--12--11--12--10||
G|---------------13--14--13--14--12||
D|--6--7--6-7-4--------------------||  X2
A|--6--7--6-7-4--------------------||
E|--4--5--4-5-2--------------------||

tekst s akkordami (song with chords)
     G#m
      Iz teni iz kemennoi nochi...
       F#m
      Medlenno, no bez somneniy...
              G#m
     Ibez lishnih prigotovleniy...
             F#m
      Gde v kajdom...
               Db   Amb
      ne pokidaj menya!  
 
           A      Ab
          ne pokidaj menya,
               A               Ab
          daje3esli ti chisty bes!
         H       F#m
          ili beri s soboj,
         H       F#m
          ili ostansya zdes.
           A      Ab
          ne pokidaj menya!
 
    


---------------------
eto deystvitelino oxuennaya pesna (it's wery-wery-wery good song)
---------------------

intro and by ars jeepers 26.04.2011
Tap to rate this tab
 
# A B C D E F G H I J K L M N O P Q R S T U V W X Y Z