Song name
# A B C D E F G H I J K L M N O P Q R S T U V W X Y Z

Navel - In This Room tab

-------------------------------------------------------------------------------
			     In this room - Navel
-------------------------------------------------------------------------------
Tabbed by: Eduard Ulmer
Email: Lumpenklumpen@web.de

Tuning: Standard tuning

Intro/Verse
e|--0--0-0--1--1-1--3--3-3--0--0-0--|
B|--1--1-1--1--1-1--3--3-3--0--0-0--|
G|--2--2-2--2--2-2--4--4-4--1--1-1--|
D|--2--2-2--3--3-3--5--5-5--2--2-2--|
A|--0--0-0--3--3-3--5--5-5--2--2-2--|
E|----------1--1-1--3--3-3--0--0-0--|
    Am      F       G       E

Bridge
e|--0--0-0-0-0-0-0--3--3-3-3-3-3-3--|
B|--1--1-1-1-1-1-1--0--0-0-0-0-0-0--|
G|--2--2-2-2-2-2-2--0--0-0-0-0-0-0--|
D|--2--2-2-2-2-2-2--0--0-0-0-0-0-0--|
A|--0--0-0-0-0-0-0--2--2-2-2-2-2-2--|
E|------------------3--3-3-3-3-3-3--|
    Am              G

Outro
e|--------------------------------|
B|--------------------------------|
G|-----------------2--2-2--2-2-2--|
D|-3--3-3--5--5-5--2--2-2--2-2-2--|
A|-3--3-3--5--5-5--0--0-0--0-0-0--|
E|-1--1-1--3--3-3-----------------|
   F5      G5      A5

Outro2
e|--------------------------------|
B|--------------------------------|
G|--------------------------------|
D|-3-3-3-3-3-3-3-3-------/7-------|
A|-3-3-3-3-3-3-3-3-------/7-------|
E|-1-1-1-1-1-1-1-1-------/5-------|
   F5                     A5

Intro/Verse 4x
Bridge 4x
Intro/Verse 4x
Bridge 4x
Intro/Verse 3x
Outro 8x
Outro 1x


| /  slide up
| \  slide down
| h  hammer-on
| p  pull-off
| ~  vibrato
| +  harmonic
| x  Mute note
===============================================================================
Tap to rate this tab
# A B C D E F G H I J K L M N O P Q R S T U V W X Y Z