Song name
# A B C D E F G H I J K L M N O P Q R S T U V W X Y Z

Navid Modiri And Gudarna - Telefonsvararen tab

e|--------------------------------------------------|
B|-7--8------------12--10---15--13--10---13--12--8--|  \
G|-0--0--5--9--7---0---0----0---0---0----0---0---0--|   \ all the
D|-x--x--0--0--0---x---x----x---x---x----x---x---x--|   / chords
A|-5--7--x--x--x---10--9----14--12--9----12--10--7--|  /
E|-------5--8--7------------------------------------|



if you can't figure the pattern out yourself, here it is
(by the way, throw in some mutes inbetween the chord changes if you can,
it really makes the song sound alot better)

intro:
e|------------------------------|
B|-15-15-15--13-13--10-10-10-10-|
G|-0--0--0---0--0---0--0--0--0--|
D|-x--x--x---x--x---x--x--x--x--|
A|-14-14-14--12-12--9--9--9--9--| \
E|------------------------------|  \
                                    \ listen for strumming pattern
e|------------------------------|    / (pretty fast though)
B|-13-13-13--12-12--8--8--8--8--|  /
G|-0--0--0---0--0---0--0--0--0--| /
D|-x--x--x---x--x---x--x--x--x--|
A|-12-12-12--10-10--7--7--7--7--|
E|------------------------------|


verse: (when singing 'visste du att...')
e|------------------------------|
B|-7-7--8-8-8-8-----------------|
G|-0-0--0-0-0-0--5-5--9-9--7-7--|
D|-x-x--x-x-x-x--0-0--0-0--0-0--|
A|-5-5--7-7-7-7--x-x--x-x--x-x--|  \
E|---------------5-5--8-8--7-7--|   \  play these two times, but on the second
                                     \ you jump right into the chorus
e|---------------|--------------|    / instead of playin the last part
B|-7-7--8-8-8-8--|-12-12--10-10-|   /  (after the bars)
G|-0-0--0-0-0-0--|-0--0---0--0--|  /
D|-x-x--x-x-x-x--|-x--x---x--x--|
A|-5-5--7-7-7-7--|-10-10--9--9--|
E|---------------|--------------|

chorus: (same as intro)



http://www.navidmodiri.com/
http://www.myspace.com/navidochgudarna
Tap to rate this tab
# A B C D E F G H I J K L M N O P Q R S T U V W X Y Z