Song name
# A B C D E F G H I J K L M N O P Q R S T U V W X Y Z

Naxxerian - Unspeakable tab

This song is in Drop-D tuning, enjoy! :)

INTRO:

----------------------------------------------------------|
----------------------------------------------------------|
----------------------------------------------------------| X8
----------------------------------------------------------|
----------------------------------------------------------|
-0-2-2-2-0-2-3--0-2-2-2-0-2-5--0-2-2-2-0-2-3--0-2-2-2-5-3-|

VERSE RIFF:

--------------------------------------------|
--------------------------------------------|
--------------------------------------------|
--------------------------------------------|
-0-2-2-2-2--0-2-2-2-2--0-3-3-3-3--0-3-3-3-3-|
-0-2-2-2-2--0-2-2-2-2--0-3-3-3-3--0-3-3-3-3-|
  pm.....    pm.....    pm.....     pm.....      X2

--------------------------------------------|
--------------------------------------------|
--------------------------------------------|
--------------------------------------------|
-0-2-2-2-2--0-2-2-2-2--0-5-5-5-5--0-3-3-3-3-|
-0-2-2-2-2--0-2-2-2-2--0-5-5-5-5--0-3-3-3-3-|
  pm......   pm.....    pm......   pm.......

CHORUS RIFF:

------------------------------------------------|
------------------------------------------------|
------------------------------------------------|
--------------10-10-10-10-10-7--7-7-7-7-7--9-10-| X2
-2--2-2-2-2-2--8--8-8-8-8-8--5--5-5-5-5-5--7--8-|
-2--2-2-2-2-2-----------------------------------|

BREAKDOWN:

--------------------------------------------|
--------------------------------------------|
--------------------------------------------|
--------------------------------------------|
-0----0-0-0----0-0-0--0----0-0-0----0-0-2-3-|
-0----0-0-0----0-0-0--0----0-0-0----0-0-2-3-|
     pm..     pm..        pm..     pm..          X4

--------------------------------------------|
--------------------------------------------|
--------------------------------------------|
--------------------------------------------|
-0----0-0-0----0-0-0--0----0-0-0----0-0-3-5-|
-0----0-0-0----0-0-0--0----0-0-0----0-0-3-5-|
     pm..     pm..        pm..     pm..

THOSE ARE ALL THE RIFFS U NEED TO KNOW TO PLAY THE SONG, THIS IS THE SONG
STRUCTURE:

INTRO (BASS ONLY)
INTRO (GUITAR PALM MUTED)
INTRO RIFF (FULL IN)
VERSE
CHORUS
INTRO
VERSE
CHORUS
INTRO/SOLO
BREAKDOWN
CHORUS
INTRO/END

ENJOY :)
Tap to rate this tab
# A B C D E F G H I J K L M N O P Q R S T U V W X Y Z