Song name
# A B C D E F G H I J K L M N O P Q R S T U V W X Y Z

Naxxerian - Unspeakable tab

This is the solo:

----------------------------------------------------------------|
----------------------------------------------------------------|
----------------------------------9-9-9-9-9-9-11-11-11-11-11-11-|
-797979791091091091012101210121012------------------------------| Really Fast
----------------------------------------------------------------|
----------------------------------------------------------------|
 pm...............................

--------------------------|
------------------10*~~~~-|
-12-12-12-12-12-12--------|
--------------------------|
--------------------------|
--------------------------|

---------------------------------------------------------------------------|
-15b-15b-15b-15brbrp13h15~~--12--1213p12/10--10----------------------------|
-------------------------------------------12--12p10p9-9--910p9/7----------|
------------------------------------------------------------------10-9-7~~-|
---------------------------------------------------------------------------|
---------------------------------------------------------------------------|

--------------------------------------------------------------------------|
----------------------------8-------------10----171717/15-1515/14-1414/12-|
-------7-9h10p9-------7-9h10--------7-9h10--------------------------------|
-7-9-10---------7-9-10--------7-9-10--------------------------------------|
--------------------------------------------------------------------------|
--------------------------------------------------------------------------|

----------------------------|
-1212--1213p12/10\12/10~~~~-|
----------------------------|
----------------------------|
----------------------------|
----------------------------|
Tap to rate this tab
 
# A B C D E F G H I J K L M N O P Q R S T U V W X Y Z