Song name
# A B C D E F G H I J K L M N O P Q R S T U V W X Y Z

Naxxerian - Nobody Cared tab

This song is in Drop-D Tuning, Enjoy :)

INTRO (Acoustic Slider)Play This Whole Thing 2 Times:

--------------------------------------------|
--------------------------------------------|
--------------------------------------------|
---0-2~-0--0-3~0-3~0---0-2~-0--3-2-0--0-2-0-| X2
--0-------0-----------0------------------3--|
-0-------0-----------0--------------3~------|

-0----|
-3----|
-2----|
-0----|
-0----|
------|

VERSE (Just Strum These 3 Chords In The Beat Of The Song):

-0----0----3--|
-3----1----3--|
-2----0----0--|
-0----2----0--|
-0----3----2--|
--------------|
 D    C    G

RIFF 2:

-0--0-0-0--0-0-0--0-0-0--0-0-0--0-0-0--0-0-0--0-0---|
-3--3-3-3--3-3-3--3-3-3--3-3-3--3-3-3--3-3-3--3-3---|
-2--2-2-2--2-2-2--2-2-2--2-2-2--2-2-2--2-2-2--2-2-0-|
-0--0-0-0--0-0-0--0-0-0--0-0-0--0-0-0--0-0-0--0-0-0-| X4
-0--0-0-0--0-0-0--0-0-0--0-0-0--0-0-0--0-0-0--0-0-3-|
--------------------------------------------------3-|

VERSE (Same As Last Verse)

CHORUS (Electric):

-----------------------------------|
-----------------------------------|
-----------------------------------|
-----------------------------------| X4
-0--0-0-0----0----3--3-3-5--5-5-5--|
-0--0-0-0----0----3--3-3-5--5-5-5--|
   pm..             pm..   pm..

RIFF 3 (Play After Every Chorus/Electric):

--------------------------------------------|
--------------------------------------------|
--------------------------------------------|
-----3~--5p3p0-3p0-3~-----3~---5/7-7-7-7\5~-| X4
--3-5--5------5---5----3-5--5--3/5-5-5-5\3~-|
-0--------------------0---------------------|

After That, The Song Repeats That Format And After The 3rd Chorus, There's This Riff Til 
The End.

RIFF 4 (Electric):

-------------------------------|
-------------------------------|
-------------------------------|
-------------------------------| X8 (Then Fade Out)
-0--0-0-3p0-0-5p0-0-3p0-0-3/2~-|
-0--0-0-3p0-0-5p0-0-3p0-0-3/2~-|
Tap to rate this tab
# A B C D E F G H I J K L M N O P Q R S T U V W X Y Z