Song name
# A B C D E F G H I J K L M N O P Q R S T U V W X Y Z

Naxxerian - Warriors Crest tab

This Song Is In Drop-D Tuning, Enjoy :)

INTRO/CHORUS:

--------------------------------------------------------------------------|
--------------------------------------------------------------------------|
--------------------------------------------------------------------------|
--------------------------------------------------------------------------| X8
-0----3--5--0--3--5--0--3--5--0--5--3--0--5--3--0--5--3--0--5--3----0-0-0-|
-0----3--5--0--3--5--0--3--5--0--5--3--0--5--3--0--5--3--0--5--3----0-0-0-|
           pm.      pm.      pm.      pm.      pm.      pm.        pm....

RIFF 2/VERSE RIFF (All Downstroking Fast):

----------------------------------------------------------|
----------------------------------------------------------|
----------------------------------------------------------|
----------------------------------------------------------| X8
-0-0-0-3-0-0-0-5-0-0-0-3-0-0-0-5-0-0-0-3-0-0-0-5-0-0-0-3~-|
-0-0-0-3-0-0-0-5-0-0-0-3-0-0-0-5-0-0-0-3-0-0-0-5-0-0-0-3~-|
 pm...   pm...   pm...   pm...   pm...   pm...   pm...
Tap to rate this tab
 
# A B C D E F G H I J K L M N O P Q R S T U V W X Y Z