Song name
# A B C D E F G H I J K L M N O P Q R S T U V W X Y Z

Nazareth - Bad Bad Boy tab

Nazareth - Bad Bad Boy
From Razamanaz (1973)

This is one of my favourite songs. I made this tab 'cause I didn't find any kind pf Bad 
Boy tab so I made it myself.
This is my first tab so I'm sure that theres lot of mistakes but this is my version.
I hope that someone who's smarter than me goes and makes better tab with guitar solo and 
riff.


Help:

~    vibrato
b    bend
p.m. palm mute
X    repeat
/    slide up
\    slide down


Intro:
|----------------------12~-|
|--/19~---16-16-16-16--12~-|
|--/19~--------------------|  X2
|--------------------------|
|--------------------------|
|--------------------------|


|--------------------------|
|----------------------13~-|
|--/18~---15-15-15-15--13~-|
|--/18~--------------------|
|--------------------------|
|--------------------------|


|----------------------12~-|
|--/19~---16-16-16-16--12~-|
|--/19~--------------------|
|--------------------------|
|--------------------------|
|--------------------------|


|--------------------------|
|--------------------------|
|--/18~--18\13~------------|
|--/18~--18\13~------------|
|--------------------------|
|--------------------------|


/
||-------------------------|
||-------------------------|
||-------------------------|
||-------------------------|
||-2-3-4-5-6-7-8-9---------|
||-------------------------|
|
|Bass:
||--------------------------|
||--------------------------|
||--------------------------|
\|--3-2-3-4-5-4-5-6-7-6-7-9-|


Chorus:
|----------------------12~-|
|--/19~---16-16-16-16--12~-|
|--/19~--------------------|  X2
|--------------------------|
|--------------------------|
|--------------------------|


|--------------------------|
|--------------------------|
|--/18~--18\13~------------|
|--/18~--18\13~------------|
|--------------------------|
|--------------------------|


/
||-------------------------|
||-------------------------|
||-------------------------|
||-------------------------|
||-2-3-4-5-6-7-8-9---------|
||-------------------------|
|
|Bass:
||--------------------------|
||--------------------------|
||--------------------------|
\|--3-2-3-4-5-4-5-6-7-6-7-9-|


Verse:

|--------------------------|
|--------------------------|
|--------------------------|
|--------------------------| p.m.
|--5-7---5-7---5-7---------|
|--3-5---3-5---3-5---------|


|--------------------------|
|--------------------------|
|--------------------------|
|--------------------------|
|--5--5---5-5-5------------| p.m.
|--3--3---3-3-3------------|

Chorus

Verse

Chorus

Interlude:
|--------------------------|
|--14b---------------\-----|
|--14b---------------\-----|
|--------------------------|
|--------------------------|
|--------------------------|

Solo

End of solo (bass):
|--------------------------|
|--------------------------|
|--------------------------|
|--3-2-3-4-5-4-5-6-7-6-7-9-|

Verse

Chorus

Outro (Chorus) X2

Fade Out
Tap to rate this tab
 
# A B C D E F G H I J K L M N O P Q R S T U V W X Y Z