Song name
# A B C D E F G H I J K L M N O P Q R S T U V W X Y Z

Nazareth - Witchdoctor Woman tab

-------------------------------------------------------------------------------
			     WITCHDOCTOR WOMAN - Nazareth
-------------------------------------------------------------------------------
Tabbed by:sezar
E-mail:keanu-rimedorf@hotmail.com

Tuning:standard


Intro : 

e|--------------------------------------------------------------------------|
B|--------------------------------------------------------------------------|
G|--------------------------------------------------------------------------|
D|------------------------------------------------------------2-0---0-------|
A|----------------------------------------------------------------3---3-0---|
E|-0-3-5-5-5-3-0-3/5---0-3-5-5-5-3-0-3\---0-3-5-5-5-3-0-3/5---------------5-|


Verse :

e|-------------------------------------|
B|--------7--7-7--7--------7--7-7--7---|
G|--------7--7-7--7--------7--7-7--7---|
D|--------7--7-7--7--------7--7-7--7---|
A|-------------------------------------|
E|--5/7-7------------5/7-7-------------|

e|-------------------------------|
B|------/14-14-14------12-12-----|
G|------/14-14-14------12-12-----|
D|------/14-14-14--x4--12-12-----|
A|-------------------------------|
E|-------------------------------|


Intro :

e|--------------------------------------------------------------------------|
B|-----10-13b-13pb-13-10-13-10----15p12p10-15p12p10-15p12p10-15p12p10-12-10-|
G|-12b-------------------------12-------------------------------------------|
D|--------------------------------------------------------------------------|
A|--------------------------------------------------------------------------|
E|--------------------------------------------------------------------------|

e|--------------------------------------------------------------------------|
B|-8-10-10-12p10p8-10-10-12p10p8-10-10-12p10p8-10-10-12p10p8----------------|
G|--------------------------------------------------------------------------|
D|--------------------------------------------------------------------------|
A|--------------------------------------------------------------------------|
E|--------------------------------------------------------------------------|

e|--------------------------------------------------------------------------|
B|8-10b-8-10b-8-10b-8-8--8-8-8-8\7-7-7-7\5-5-5-5\3-3-3-3\2-2-2-2/3-3-3-3/5-5|
G|--------------------------------------------------------------------------|
D|--------------------------------------------------------------------------|
A|--------------------------------------------------------------------------|
E|--------------------------------------------------------------------------|

e|--------------------------------------------------------------------------|
B|-5-5-5------------------------------------------------7-8-7p8h7---7p8h7--7|
G|-------------7---7---7h9-----7---7---7h9------7---7-9-----------9-------9-|
D|----------/9---9---9-----7/9---9---9------7/9---9-------------------------|
A|--------------------------------------------------------------------------|
E|--------------------------------------------------------------------------|

e|--------------------------------------------------------------------------|
B|-------------------------------------7h8p7---7h8p7---7h8p7---7h8p7---7h8--|
G|-----7---7---7h9-----7---7---7h9-7h9-------9-------9-------9-------9------|
D|-7/9---9---9-----7/9---9---9----------------------------------------------|
A|--------------------------------------------------------------------------|
E|--------------------------------------------------------------------------|

e|--------------------------------------------------------------------------|
B|----------------15-13-12h13p12----2h13p12----12----12---------------------|
G|-11-12-14-12-11----------------14---------14----14----14\------12----12---|
D|-----------------------------------------------------------/14----14------|
A|--------------------------------------------------------------------------|
E|--------------------------------------------------------------------------|

e|--------------------12----------------------------------------------------|
B|-----------------12----15-12----15p12----15---15---15---------------------|
G|-------14-----14b------------14-------14b--14b--14b-----------------------|
D|-14/16----16--------------------------------------------------------------|
A|--------------------------------------------------------------------------|
E|--------------------------------------------------------------------------|

************************************

| /   slide up
| \   slide down
| h   hammer-on
| p   pull-off
| ~   vibrato
| +   harmonic
| x   Mute note
| b   Bend
| pb  Pre-bend
| br  Bend release
| pbr Pre-bend release
| brb Bend release bend

************************************
Tap to rate this tab
# A B C D E F G H I J K L M N O P Q R S T U V W X Y Z