Song name
# A B C D E F G H I J K L M N O P Q R S T U V W X Y Z

Nazareth - Vigilante Man tab

-------------------------------------------------------------------------------
			     VIGILANTE MAN - Nazareth
-------------------------------------------------------------------------------

Tuning: Standard

Intro:


e|5/7\5-3-5/7--3-5/7-5\3-----------3|
B|--------------------------------3-|
G|----------------------------0-----|
D|------------------------0-3-------|
A|----------------------------------|
E|------------------------------3---|


e|5/8-3-6-8/10--10--\-3-----------3|
B|5/8-3-6-8/10----10\-3----------3-|
G|---------------------------0-----|
D|-----------------------0-3-------|
A|---------------------------------|
E|-----------------------------3---|x2

Verse:                Have you seen that...

                      Lonely nights down...

                      Will our rainbow...

e|5/10\8\3-----------3------------------------------------3-|
B|5/10\8\3----------3----------------6\3-6/8-6-3----------3-|
G|--------------0-------------------------------------0-----|
D|----------0-3-----------------------------------0-3-------|
A|------------------------------------------------------3---|
E|----------------3-----------------------------------------|

Sleeping...

Man comes...                        There's a vigilante man

When the rain...

e|5/8-3-6-8/10--10--\-3-----------3|   |---5/10\8\3----------3|
B|5/8-3-6-8/10----10\-3----------3-|   |---5/10\8\3---------3-|
G|---------------------------0-----|   |----------------0-----|
D|-----------------------0-3-------|   |------------0-3-------|
A|---------------------------------|   |----------------------|
E|-----------------------------3---|x2 |----------------3-----|

Vigilaaaante man, vigilaaaante man

e|3/6/8-6-3-------3/6/8-6-6/8\6\3--------------------------------------------|
B|3/6/8-6-3-------3/6/8-6-6/8\6\3--------------------------------------------|
G|---------------------------------------------------------------------------|
D|---------------------------------------------------------------------------|
A|---------------------------------------------------------------------------|
E|---------------------------------------------------------------------------|

Solo:

e|3/7\3/7--3-5-3-7-5-3------------3--5/8-3-6-8/10--10--\-3-------------|
B|-----------------------------------5/8-3-6-8/10----10\-3-------------|
G|--------------------------0-3p0------------------------------0-------|
D|----------------------0h3--------------------------------0-3---------|
A|---------------------------------------------------------------------|
E|---------------------------------------------------------------------|

                               Outro:

e|5/8-3-6-8/10---10/--13/--15/-------/15~-/15~-/15~----------------------15\|
B|5/8-3-6-8/10-10/--13/--15/---------/15~-/15~-/15~--13p12-13p12-15-12\8----|
G|--------------------------------------------------------------------------|
D|--------------------------------------------------------------------------|
A|--------------------------------------------------------------------------|
E|--------------------------------------------------------------------------|

************************************

| /   slide up
| \   slide down
| h   hammer-on
| p   pull-off
| ~   vibrato
| +   harmonic
| x   Mute note
| b   Bend
| pb  Pre-bend
| br  Bend release
| pbr Pre-bend release
| brb Bend release bend

************************************
Tap to rate this tab
# A B C D E F G H I J K L M N O P Q R S T U V W X Y Z