Song name
# A B C D E F G H I J K L M N O P Q R S T U V W X Y Z

Nazareth - Beggars Day tab

Intro:

e|-----------------------|
B|-----------------------|
G|-5-5/8-3---------------|
D|-5-5/8-3-3-----5555555-|
A|-3-3/6-1-3-----5555555-|
E|---------1--x3-3333333-|

Riff 2

e|-------------|
B|-------------|
G|-5--3----3/5-|
D|-5--3-3--3/5-|
A|-3--1-3--1/3-|
E|------1------|

Riff 3

e|---------------------------------------------------------------------|
B|---------------------------------------------------------------------|
G|--9999999-7777777----------------------------------------------------|
D|--9999999-7777777-7777777-10101010101010-777777-10101010101010-999999|
A|--7777777-5555555-7777777-10101010101010-777777-10101010101010-999999|
E|------------------5555555-8-8-8-8-8-8-8--555555-8-8-8-8-8-8-8--777777|

After 3:45

e|------------------------------------------------------------------------------|
B|-------6------------------6------------------6------------------6-------------|
G|--6---6-6---6---6-6--6---6-6---6---6-6--6---6-6---6---6-6--6---6-6---6---6-6--|
D|-6-6-6---6-6-6-6-6--6-6-6---6-6-6-6-6--6-6-6---6-6-6-6-6--6-6-6---6-6-6-6-6---|
A|4---2---------2----4---2---------2----4---2---------2----4---2---------2------|
E|----------6------------------6------------------6------------------6----------|

************************************

| /   slide up
| \   slide down
| h   hammer-on
| p   pull-off
| ~   vibrato
| +   harmonic
| x   Mute note
| b   Bend
| pb  Pre-bend
| br  Bend release
| pbr Pre-bend release
| brb Bend release bend

************************************
Tap to rate this tab
# A B C D E F G H I J K L M N O P Q R S T U V W X Y Z