Song name
# A B C D E F G H I J K L M N O P Q R S T U V W X Y Z

Nazareth - Expect No Mercy tab

Riff 1(gtr 1)                                                         
E||--5-7-8~-----5-7-8~-----|--5-7-8-5-10-5-8-10-8-5-7-8~-----|
B||------------------------|---------------------------------|
G||------------------------|---------------------------------|
D||------------------------|---------------------------------|
A||------------------------|---------------------------------|
E||------------------------|---------------------------------|

Riff 2(gtr 2)
E||--------------------------------|------------------------------|
B||--------------------------------|------------------------------|
G||----0-2-2-2-2-2-2-2-0-2-2-2-2-2-|--2-2-0-2-2-2-2-2-2-2-5---7---|
D||--------------------------------|----------------------5---7---|
A||--------------------------------|----------------------3---5---|
E||--------------------------------|------------------------------|

Riff 3(gtr 1)
E||-----------------------|-----------------------|-----------------------|
B||-----------------------|-----------------------|-----------------------|
G||--2--5--7--5--2--------|--2--2----2----5----7--|--2--5--7--5--2--------|
D||--2--5--7--5--2--------|--2--2----2----5----7--|--2--5--7--5--2--------|
A||--0--3--5--3--0--------|--0--0----0----3----5--|--0--3--5--3--0--------|
E||-----------------------|-----------------------|-----------------------|

Riff 2(gtr2)
E||--------------------------------|------------------------------|
B||--------------------------------|------------------------------|
G||----0-2-2-2-2-2-2-2-0-2-2-2-2-2-|--2-2-0-2-2-2-2-2-2-2-5---7---|
D||--------------------------------|----------------------5---7---|
A||--------------------------------|----------------------3---5---|
E||--------------------------------|------------------------------|

           
Riff 3(gtr1) 2x
------------------|--3--6--8--6--3~-------|--3--3----3----6----8--|
------------------|-----------------------|-----------------------|
------------------|-----------------------|-----------------------|
------------------|-----------------------|-----------------------|
------------------|-----------------------|-----------------------|
------------------|-----------------------|-----------------------|

Riff 4(gtr2)(Riff 3 is played twice during these bars)
--------------------------------|----------------------------------|
--------------------------------|----------------------------------|
--------------------------------|----------------------------------|
--------------------------------|----------------------------------|
--------------------------------|----------------------------------|
----1-3-3-3-3-3-3-3-1-3-3-3-3-3-|--3-3-1-3-3-3-3-3-3-1-3-3-3-3-3-3-|
                              
----------------------------------|----------------------------------|
----------------------------------|----------------------------------|
----------------------------------|----------------------------------|
----------------------------------|----------------------------------|
----------------------------------|----------------------------------|
--3-3-1-3-3-3-3-3-3-1-3-3-3-3-3-3-|--3-3-1/3-3-1/3-3-1/3-3-1/3-1/3-3-|
Tap to rate this tab
# A B C D E F G H I J K L M N O P Q R S T U V W X Y Z