Song name
# A B C D E F G H I J K L M N O P Q R S T U V W X Y Z

Nazxul - Dragon Dispitous tab

-------------------------------------------------------------------------------
			     Dragon Dispitous - Nazxul
-------------------------------------------------------------------------------

Tabbed by: Dev
Email: devster75@gmail.com

Band URL: http://www.myspace.com/nazxul

Not seen any tabs by this band on the site yet so figured I'd make a 
contribution.  This is my interpretation of the song so apologies if some notes 
are off.  Listen to the song to get a feel for the strumming and rhythm and enjoy!  :o)

Tuning: Standard Tuning

Riff 1
e|---------------------------------------------------------------------------|
B|---------------------------------------------------------------------------|
G|---------------------------------------------------------------------------|
D|-7-7-7-7-7-7-7-7-7-8-8-8---------------------------------------------------|
A|-5-5-5-5-5-5-5-5-5-6-6-6-8-8-8-9-9-9-7-7-7-7-7-7-7-7-7-4-4-4-4-4-4-4-4-4---|
E|-------------------------6-6-6-7-7-7-5-5-5-5-5-5-5-5-5-2-2-2-2-2-2-2-2-2---|

Riff 2
e|---------------------------------------------------------------------------|
B|---------------------------------------------------------------------------|
G|---------------------------------------------------------------------------|
D|-7-7-------------------8-8---------7-7-------------------10-10-10-9-9-9----|
A|-5-5-2-2-2-2-2-2-2-2-2-6-6-8-8-9-9-5-5-2-2-2-2-2-2-2-2-2-8--8--8--7-7-7----|
E|-----0-0-0-0-0-0-0-0-0-----6-6-7-7-----0-0-0-0-0-0-0-0-0-------------------|

Riff 3
e|---------------------------------------------------------------------------|
B|---------------------------------------------------------------------------|
G|---------------------------------------------------------------------------|
D|-8-8-8-8-8-8-8-8-8---------------------------------------------------------|
A|-6-6-6-6-6-6-6-6-6-4-4-4-4-4-4-4-4-4-7-7-7-7-7-7-7-7-7-2-2-2-2-2-2-2-2-2---|
E|-------------------2-2-2-2-2-2-2-2-2-5-5-5-5-5-5-5-5-5-0-0-0-0-0-0-0-0-0---|

Riff 4
e|---------------------------------------------------------------------------|
B|---------------------------------------------------------------------------|
G|---------------------------------------------------------------------------|
D|---------------------------------------------------------------------------|
A|-2-2-2-2-2-2-2-2-2-5-5-5-5-5-5-5-5-5-8-8-8-8-8-8-8-8-8---------------------|
E|-0-0-0-0-0-0-0-0-0-3-3-3-3-3-3-3-3-3-6-6-6-6-6-6-6-6-6---------------------|

Riff 5
e|---------------------------------------------------------------------------|
B|---------------------------------------------------------------------------|
G|---------------------------------------------------------------------------|
D|-------------------5-5-5-5-----------------5-5-5-8-8-8-8-8-8-8-8-8---------|
A|-7-7-7-7-7-7-7-7-7---------6-6-6-6-7-7-7-7---------------------------------|
E|---------------------------------------------------------------------------|

e|---------------------------------------------------------------------------|
B|---------------------------------------------------------------------------|
G|-10-10-10-----------------------9-9-9-----------------------9-9-9-10-10-10-|
D|----------8-8-8-7-7-7-7-7-7-7-7-------7-7-7-6-6-6-6-6-6-6-6----------------|
A|---------------------------------------------------------------------------|
E|---------------------------------------------------------------------------|

Riff 6
e|---------------------------------------------------------------------------|
B|---------------------------------------------------------------------------|
G|---------------------------------------------------------------------------|
D|---------------------------------------------------------------------------|
A|-2-(let ring)--------------------------------------------------------------|
E|-0-------------------------------------------------------------------------|



Song Structure
==============

Riff 1 x2
Riff 2 x2
More cunning than any beast God hath made
The serpent deceiver, freedom of will

Riff 1 x2
Riff 2 x2
Take the veil from thine eyes
To see the light and falseness

Riff 3 x8
Black eyes burn with fury
Overpowering senses bewildered
Serpents and crosses, splintering entwined
Merging organ melee, from life to death, death to dust

Riff 1 x4
Ascend the scaffold of piety
To shatter the alabaster spheres
Destroy transient temples, host hives
The dragon dispitous

Riff 4 x6
Birthed and bred with Belial
Wode werewolf, worme and scorpion venomous
Lucifer's laid foul fiends face infernal
Sodomy celestial brought unto them

Riff 5 x6
Redemption forebode

I am the Morning Star

Joining to form an army
No host ethereal, can withstand

I am the Morning Star

Riff 6
Tap to rate this tab
 
# A B C D E F G H I J K L M N O P Q R S T U V W X Y Z