Song name
# A B C D E F G H I J K L M N O P Q R S T U V W X Y Z

Nc-17 - Where Do I Belong tab

Where do I belong


Intro

GUITAR 1-  Play this 10 times


E -------9-----9-----9-----9-----5-----5-----7-----7--------------------|
B ---7-----7-----7-----7-----3-----3-----5-----5------------------------|
G ----------------------------------------------------------------------|
D ----------------------------------------------------------------------|
A ----------------------------------------------------------------------|
E ----------------------------------------------------------------------|

GUITAR 2 ? 2 times p/m after 2 times of guitar 1
E -------------------------------------------------------------------------|
B -------------------------------------------------------------------------|
G ---9--9--9---------9--9--9---------5--5--5---------3--3--3---------------|
D ---7--7--7--7--7--7--7--7--7--7--3--3--3--3--3--5--5--5--5--5------------|
A -------------------------------------------------------------------------|
E -------------------------------------------------------------------------|

GUITAR 2 ? 2 times
E -------------------------------------------------------------------------|
B -------------------------------------------------------------------------|
G ---9--9--9---------9--9--9---------5--5--5---------3--3--3---------------|
D ---7--7--7--7--7--7--7--7--7--7--3--3--3--3--3--5--5--5--5--5------------|
A -------------------------------------------------------------------------|
E -------------------------------------------------------------------------|

GUITAR 2 ? 2 times
E -------------------------------------------------------------------------|
B -------------------------------------------------------------------------|
G ---9--9--9---------9--9--9---------5--5--5---------3--3--3---------------|
D ---7--7--7---------7--7--7---------3--3--3---------5--5--5---------------|
A -------------0--0-------------0--0------------0--0------------0--0-------|
E -------------------------------------------------------------------------|

GUITAR 2 ? 2 times
E -------------------------------------------------------------------------|
B -------------------------------------------------------------------------|
G ---9--9--9---------9--9--9---------5--5--5---------3--3--3---------------|
D ---7--7--7---------7--7--7---------3--3--3---------5--5--5---------------|
A ---0--0--0--0--0--0--0--0--0--0--0--0--0--0--0--0--0--0--0--0------------|
E -------------------------------------------------------------------------|
Tap to rate this tab
 
# A B C D E F G H I J K L M N O P Q R S T U V W X Y Z