Song name
# A B C D E F G H I J K L M N O P Q R S T U V W X Y Z

Ne-yo - Because Of You Acoustic tab

Because Of You
Ne-Yo

This is how I play it on an acoustic-strumming patterns are changeable of course but  I
it sounds best this way. email me with any suggestions - tomackerly@gmail.com

Intro:

   1 & 2 & 3 & 4 &
eb|----------------|
Bb|----------------|
Gb|--------4-2-1---|
Db|------2-------2-|
Ab|----------------|
Eb|----------------|

   1 & 2 & 3 & 4 &  1 & 2 & 3 & 4 &  1 & 2 & 3 & 4 &  1 & 2 & 3 & 4 &
eb|0---------------|2---------------|0---------------|0---------------|
Bb|0---------------|2---------------|0---------------|0---------------|
Gb|4---4---4-2-1---|4---4---4-2-1---|6---6---4-------|6---6---4-------|
Db|2-----2-------2-|4-----4-------4-|6-----6---7-6-6-|6-----6---7-6-6-|
Ab|0---------------|2---------------|4---------------|4---------------|
Eb|----------------|----------------|----------------|----------------|

   1 & 2 & 3 & 4 &  1 & 2 & 3 & 4 &  1 & 2 & 3 & 4 &  1 & 2 & 3 & 4 &
eb|0---------------|2---------------|0------0--------|0---------------|
Bb|0---------------|2---------------|0------0--------|0---------------|
Gb|4---4---4-2-1---|4---4---4-2-1---|4------4--------|0-------4-2-1---|
Db|2-----2-------2-|4-----4-------4-|2------4--------|4-----2-------2-|
Ab|0---------------|2---------------|0------2--------|4---------------|
Eb|----------------|----------------|----------------|2---------------|

Verse:

   1 & 2 & 3 & 4 &  1 & 2 & 3 & 4 &  1 & 2 & 3 & 4 &  1 & 2 & 3 & 4 &
eb|0---------------|2---------------|0---------------|0---------------|
Bb|0---------------|2---------------|0---------------|0---------------|
Gb|4---4---4-2-1---|4---4---4-2-1---|6---6---4-------|6---6---4-------| x 4
Db|2-----2-------2-|4-----4-------4-|6-----6---7-6-6-|6-----6---7-6-6-|
Ab|0---------------|2---------------|4---------------|4---------------|
Eb|----------------|----------------|----------------|----------------|

Chorus:


   1 & 2 & 3 & 4 &  1 & 2 & 3 & 4 &  1 & 2 & 3 & 4 &  1 & 2 & 3 & 4 &
eb|0---0-0---0-0-0-|2---2-2---2-2-2-|0---0-0---0-0-0-|0---0-0---0-0-0-|
Bb|0---0-0---0-0-0-|2---2-2---2-2-2-|0---0-0---0-0-0-|0---0-0---0-0-0-|
Gb|4---4-4---4-4-4-|4---4-4---4-4-4-|6---6-6---6-6-6-|6---6-6---6-6-6-| x 3
Db|2---2-2---2-2-2-|4---4-4---4-4-4-|6---6-6---6-6-6-|6---6-6---6-6-6-|
Ab|0---0-0---0-0-0-|2---2-2---2-2-2-|4---4-4---4-4-4-|4---4-4---4-4-4-|
Eb|----------------|----------------|----------------|----------------|

   1 & 2 & 3 & 4 &  1 & 2 & 3 & 4 &
eb|0---0-0---0-0-0-|2---2-2---2-2-2-|
Bb|0---0-0---0-0-0-|2---2-2---2-2-2-|
Gb|4---4-4---4-4-4-|4---4-4---4-4-4-|
Db|2---2-2---2-2-2-|4---4-4---4-4-4-|
Ab|0---0-0---0-0-0-|2---2-2---2-2-2-|
Eb|----------------|----------------|

   1 & 2 & 3 & 4 &  1 & 2 & 3 & 4 &  1 & 2 & 3 & 4 &  1 & 2 & 3 & 4 &
eb|0---0-0---2-2-2-|2---2-2---2-2-2-|0---0-0---2-2-2-|2---2-2---2-2-2-|
Bb|0---0-0---2-2-2-|2---2-2---2-2-2-|0---0-0---2-2-2-|2---2-2---2-2-2-|
Gb|4---4-4---4-4-4-|2---2-2---2-2-2-|4---4-4---4-4-4-|2---2-2---2-2-2-|
Db|2---2-2---4-4-4-|4---4-4---4-4-4-|2---2-2---4-4-4-|4---4-4---4-4-4-|
Ab|0---0-0---2-2-2-|4---4-4---4-4-4-|0---0-0---2-2-2-|4---4-4---4-4-4-|
Eb|----------------|2---2-2---2-2-2-|----------------|2---2-2---2-2-2-|


Verse:

   1 & 2 & 3 & 4 &  1 & 2 & 3 & 4 &  1 & 2 & 3 & 4 &  1 & 2 & 3 & 4 &
eb|0---------------|2---------------|0---------------|0---------------|
Bb|0---------------|2---------------|0---------------|0---------------|
Gb|4---4---4-2-1---|4---4---4-2-1---|6---6---4-------|6---6---4-------| x 4
Db|2-----2-------2-|4-----4-------4-|6-----6---7-6-6-|6-----6---7-6-6-|
Ab|0---------------|2---------------|4---------------|4---------------|
Eb|----------------|----------------|----------------|----------------|

Chorus:

   1 & 2 & 3 & 4 &  1 & 2 & 3 & 4 &  1 & 2 & 3 & 4 &  1 & 2 & 3 & 4 &
eb|0---0-0---0-0-0-|2---2-2---2-2-2-|0---0-0---0-0-0-|0---0-0---0-0-0-|
Bb|0---0-0---0-0-0-|2---2-2---2-2-2-|0---0-0---0-0-0-|0---0-0---0-0-0-|
Gb|4---4-4---4-4-4-|4---4-4---4-4-4-|6---6-6---6-6-6-|6---6-6---6-6-6-| x 3
Db|2---2-2---2-2-2-|4---4-4---4-4-4-|6---6-6---6-6-6-|6---6-6---6-6-6-|
Ab|0---0-0---0-0-0-|2---2-2---2-2-2-|4---4-4---4-4-4-|4---4-4---4-4-4-|
Eb|----------------|----------------|----------------|----------------|

   1 & 2 & 3 & 4 &  1 & 2 & 3 & 4 &
eb|0---0-0---0-0-0-|2---2-2---2-2-2-|
Bb|0---0-0---0-0-0-|2---2-2---2-2-2-|
Gb|4---4-4---4-4-4-|4---4-4---4-4-4-|
Db|2---2-2---2-2-2-|4---4-4---4-4-4-|
Ab|0---0-0---0-0-0-|2---2-2---2-2-2-|
Eb|----------------|----------------|

   1 & 2 & 3 & 4 &  1 & 2 & 3 & 4 &  1 & 2 & 3 & 4 &  1 & 2 & 3 & 4 &
eb|0---0-0---2-2-2-|2---2-2---2-2-2-|0---0-0---2-2-2-|2---2-2---2-2-2-|
Bb|0---0-0---2-2-2-|2---2-2---2-2-2-|0---0-0---2-2-2-|2---2-2---2-2-2-|
Gb|4---4-4---4-4-4-|2---2-2---2-2-2-|4---4-4---4-4-4-|2---2-2---2-2-2-|
Db|2---2-2---4-4-4-|4---4-4---4-4-4-|2---2-2---4-4-4-|4---4-4---4-4-4-|
Ab|0---0-0---2-2-2-|4---4-4---4-4-4-|0---0-0---2-2-2-|4---4-4---4-4-4-|
Eb|----------------|2---2-2---2-2-2-|----------------|2---2-2---2-2-2-|


Bridge:

   1 & 2 & 3 & 4 &  1 & 2 & 3 & 4 &  1 & 2 & 3 & 4 &  1 & 2 & 3 & 4 &
eb|5----------------|0--------------|3----------------|2--------------|
Bb|5----------------|0--------------|3----------------|2--------------|
Gb|7----------------|6--------------|5----------------|4--------------| x 2
Db|7----------------|6--------------|5----------------|4--------------|
Ab|5----------------|4--------------|3----------------|2--------------|
Eb|-----------------|---------------|-----------------|---------------|

   1 & 2 & 3 & 4 &  1 & 2 & 3 & 4 &  1 & 2 & 3 & 4 &  1 & 2 & 3 & 4 &
eb|1---------------|0---------------|0---------------|0---------------|
Bb|1---------------|0---------------|0---------------|0---------------|
Gb|3---------------|4---------------|4---------------|4---------------|
Db|3---------------|2---------------|2---------------|2---------------|
Ab|1---------------|0---------------|0---------------|0---------------|
Eb|----------------|----------------|----------------|----------------|

Pre-Chorus:

   1 & 2 & 3 & 4 &  1 & 2 & 3 & 4 &  1 & 2 & 3 & 4 &  1 & 2 & 3 & 4 &
eb|0---0-0---0-0-0-|2---2-2---2-2-2-|0---0-0---0-0-0-|0---0-0---0-0-0-|
Bb|0---0-0---0-0-0-|2---2-2---2-2-2-|0---0-0---0-0-0-|0---0-0---0-0-0-|
Gb|4---4-4---4-4-4-|4---4-4---4-4-4-|6---6-6---6-6-6-|6---6-6---6-6-6-| x 2
Db|2---2-2---2-2-2-|4---4-4---4-4-4-|6---6-6---6-6-6-|6---6-6---6-6-6-|
Ab|0---0-0---0-0-0-|2---2-2---2-2-2-|4---4-4---4-4-4-|4---4-4---4-4-4-|
Eb|----------------|----------------|----------------|----------------|

   1 & 2 & 3 & 4 &  1 & 2 & 3 & 4 &  1 & 2 & 3 & 4 &  1 & 2 & 3 & 4 &
eb|0---0-0---2-2-2-|2---2-2---2-2-2-|0---0-0---2-2-2-|2---2-2---2-2-2-|
Bb|0---0-0---2-2-2-|2---2-2---2-2-2-|0---0-0---2-2-2-|2---2-2---2-2-2-|
Gb|4---4-4---4-4-4-|2---2-2---2-2-2-|4---4-4---4-4-4-|2---2-2---2-2-2-|
Db|2---2-2---4-4-4-|4---4-4---4-4-4-|2---2-2---4-4-4-|4---4-4---4-4-4-|
Ab|0---0-0---2-2-2-|4---4-4---4-4-4-|0---0-0---2-2-2-|4---4-4---4-4-4-|
Eb|----------------|2---2-2---2-2-2-|----------------|2---2-2---2-2-2-|

Chorus:

   1 & 2 & 3 & 4 &  1 & 2 & 3 & 4 &  1 & 2 & 3 & 4 &  1 & 2 & 3 & 4 &
eb|0---0-0---0-0-0-|2---2-2---2-2-2-|0---0-0---0-0-0-|0---0-0---0-0-0-|
Bb|0---0-0---0-0-0-|2---2-2---2-2-2-|0---0-0---0-0-0-|0---0-0---0-0-0-|
Gb|4---4-4---4-4-4-|4---4-4---4-4-4-|6---6-6---6-6-6-|6---6-6---6-6-6-| x 3
Db|2---2-2---2-2-2-|4---4-4---4-4-4-|6---6-6---6-6-6-|6---6-6---6-6-6-|
Ab|0---0-0---0-0-0-|2---2-2---2-2-2-|4---4-4---4-4-4-|4---4-4---4-4-4-|
Eb|----------------|----------------|----------------|----------------|


   1 & 2 & 3 & 4 &  1 & 2 & 3 & 4 &
eb|0---0-0---0-0-0-|2---2-2---2-2-2-|
Bb|0---0-0---0-0-0-|2---2-2---2-2-2-|
Gb|4---4-4---4-4-4-|4---4-4---4-4-4-|
Db|2---2-2---2-2-2-|4---4-4---4-4-4-|
Ab|0---0-0---0-0-0-|2---2-2---2-2-2-|
Eb|----------------|----------------|

   1 & 2 & 3 & 4 &  1 & 2 & 3 & 4 &  1 & 2 & 3 & 4 &  1 & 2 & 3 & 4 &
eb|0---0-0---2-2-2-|2---2-2---2-2-2-|0---0-0---2-2-2-|2---2-2---2-2-2-|
Bb|0---0-0---2-2-2-|2---2-2---2-2-2-|0---0-0---2-2-2-|2---2-2---2-2-2-|
Gb|4---4-4---4-4-4-|2---2-2---2-2-2-|4---4-4---4-4-4-|2---2-2---2-2-2-|
Db|2---2-2---4-4-4-|4---4-4---4-4-4-|2---2-2---4-4-4-|4---4-4---4-4-4-|
Ab|0---0-0---2-2-2-|4---4-4---4-4-4-|0---0-0---2-2-2-|4---4-4---4-4-4-|
Eb|----------------|2---2-2---2-2-2-|----------------|2---2-2---2-2-2-|

Outro:

   1 & 2 & 3 & 4 &  1 & 2 & 3 & 4 &
eb|0---0-0---2-2-2-|2---2-2---2-2-2-|
Bb|0---0-0---2-2-2-|2---2-2---2-2-2-|
Gb|4---4-4---4-4-4-|2---2-2---2-2-2-|
Db|2---2-2---4-4-4-|4---4-4---4-4-4-|
Ab|0---0-0---2-2-2-|4---4-4---4-4-4-|
Eb|----------------|2---2-2---2-2-2-|
Tap to rate this tab
# A B C D E F G H I J K L M N O P Q R S T U V W X Y Z