Song name
# A B C D E F G H I J K L M N O P Q R S T U V W X Y Z

Ne-yo - Closer tab

How to play Closer by Ne-yo..very easy to play : 

Capo on 3th Fret.

And through the whole song : 


E---------0-------|0--------0-------|---------0-------|-0-------0-------|
B-----4--------4--|----4--------4---|-----4--------4--|-----4-------4---|
G---4---4----4---4|--4---4----4---4-|---4---4----4---4----4---4---4---4-|
D-----------------|-----------------|-----------------|-----------------|
A-0---------------|-----------------|-0---------------|-----------------|
E-----------------|-----------------|-----------------|-----------------|

E---------0-------|0--------0-------|---------0-------|-0-------0-------|
B-----4--------4--|----4--------4---|-----4--------4--|-----4-------4---|
G---4---4----4---4|--4---4----4---4-|---4---4----4---4----4---4---4---4-|
D-----------------|-----------------|-----------------|-----------------|
A-4---------------|-----------------|-4---------------|-----------------|
E-----------------|-----------------|-----------------|-----------------|


have fun.<3
Tap to rate this tab
 
# A B C D E F G H I J K L M N O P Q R S T U V W X Y Z