Song name
# A B C D E F G H I J K L M N O P Q R S T U V W X Y Z

Ne-yo - Closer tab

capo on 3rd fret
Tabbed by Michael Dougherty (didn't feel like making an account)
done by ear

w/ fingers
let notes ring throughout 

e----------0-----0-----0------|
B------4-----4-----4-----4----|
G----4---4-----4-----4-----4--|
D-----------------------------| x2
A-0---------------------------|
E-----------------------------|

e----------0-----0-----0------|
B------4-----4-----4-----4----|
G----4---4-----4-----4-----4--|
D-----------------------------| x2
A-4---------------------------|
E-----------------------------|
Tap to rate this tab
 
# A B C D E F G H I J K L M N O P Q R S T U V W X Y Z