Ne-yo - Sexy Love tab

-----------------------------------------------------------------
SEXY LOVE - Ne-Yo
-----------------------------------------------------------------
Tabbed by: Frank Truei
Email: Brokensword421@hotmail.com

Tuning: Standard (EADGBe)  

You should fingerpluck this song.

INTRO

e|---11------------13-15------------------------------|
B|13----15------16-------15-13------13----13-16-15----|
G|--------------------15------------------------------|
D|13----15------------------13------13----13-17-15----|
A|11----13------------------11------11----11-15-13----|
E|--------------------15------------------------------|

VERSE 1/ CHORUS / VERSE 2 / CHORUS 2

e|---------------------------------------------6------|
B|--4-----------6-8-------------4----------6-8--------|
G|5----7------8---7-7-5-------5---7------8---7---5----|
D|6----8----------8---6-------6---8----------8---6----|\
A|6----8----------6---6-------6---8----------6---6----| \
E|4----6--------------4-------4---6--------------4----|  \
                                                          repeat a lot!
e|----------------------------------------------------|  /
B|--4-----------6-8-------------4--------4-7-6--------| /
G|5----7------8---7-7-5-------5---7------5-8-7--------|/
D|6----8----------8---6-------6---8------6-7-8--------|
A|6----8----------6---6-------6---8------6-6-8--------|
E|4----6--------------4-------4---6------4---6--------|

BRIDGE

Not going to write all the repititions for each one, just how to pluck them 
(without the complete details in the variations in some, just feel them out).
There are 2 versions I have here.  The first changes the chord shape and uses the 
thicker strings for a warmer sound, but the 2nd maintains the chord shapes used 
previously and is more comfortable to play (doesn't sound as good)  Use whatever you want.

Version 1

e|----------|------------|------------|---------------------------|
B|----------|------------|------------|-----------------9---------|
G|8-------8-|10-------10-|------------|8-------8----------------8-|
D|-----10---|------12----|11-------11-|-----10------10-------10---|
A|--11------|---13-------|------11----|--11------11-------11------|
E|----------|------------|---13-------|---------------------------|

e|----------|------------|------------|---------------------------|
B|----------|------------|------------|9-----------9--------------|
G|8-------8-|10-------10-|------------|8-----------8--------------|
D|-----10---|------12----|11-------11-|10----------10-------------|
A|--11------|---13-------|------11----|11----------11-------------|
E|----------|------------|---13-------|---------------------------|

Version 2 (same idea as 1, I'm just putting the chords here)

e|--|---|---|---|---|-4--4--|
B|4-|-6-|-6-|-4-|-6-|-4--4--|
G|5-|-7-|-6-|-5-|-7-|-5--5--|
D|6-|-8-|-8-|-6-|-8-|-6--6--|
A|--|---|---|---|---|-6--6--|
E|--|---|---|---|---|-------|

FINAL CHORUS

(Same as the Verses and Choruses before!)

OUTRO

e|---11------------13-15---------------11-------------13-15-18-------|
B|13----15------16-------15-13------13----15-------16----------13----|
G|--------------------15---------------------------------15----------|
D|13----15------------------13------13----15-------------------13----|
A|11----13------------------11------11----13-------------------11----|
E|--------------------15---------------------------------15----------|
Tap to rate this tab
 
# A B C D E F G H I J K L M N O P Q R S T U V W X Y Z