Song name
# A B C D E F G H I J K L M N O P Q R S T U V W X Y Z

Ne-yo - Because Of You Acoustic tab

Ne-yo - Because of you Acoustic Fingerstyle Instrumental

http://www.youtube.com/watch?v=5lYjxCOM-4M     
http://www.youtube.com/user/111Dadada     

CAPO: 1.Fred
CHORDS: G, A, Bm

Tablature Legend
----------------

^ => Pull Off
/ => Slide up
\ => Slide down
<12> => harmonic at the 12th fret
t => Tap with strumming hand
L - tied note


             Q.     E  E  E  E  E   
E||-------|------------5--3--2-----|
B||-------|---------3-----------3--|
G||-------|------------------------|
D||-------|------------------------|
A||-------|------------------------|
E||-------|------------------------|


  E  E  E  E  E  E  E  E   
--------------5--3--2-----|
-----------3-----------2--|
--------2--------------4--|
-----0--------------------|
--------------------------|
--3-----------------------|


  E  E  E  E  E  E  E  E   
--------------5--3--2--0--|
-----------0-----------3--|
--------2-----------------|
-----2--------------------|
--0-----------------------|
--------------------------|


  E  E  E  Q    Q.      
-----------0----5------|
--------3--------------|
--------4--------------|
-----4-----------------|
--2--------------------|
-----------------------|


  E  E  E  E  E  E  E  E   
--------------5--3--2-----|
-----------3-----------3--|
--------4-----------------|
-----4--------------------|
--2-----------------------|
--------------------------|


  E  E  E  E  E  E  E  E   
--------------5--3--2-----|
-----------3-----------2--|
--------2--------------4--|
-----0--------------------|
--------------------------|
--3-----------------------|


  E  E  E  E  E  E  E  E   
--------------5--3--2--0--|
-----------0-----------3--|
--------2-----------------|
-----2--------------------|
--0-----------------------|
--------------------------|


  E  Q    Q    Q    E   
---------------0----0--|
----------3---------0--|
----------4---------0--|
-----4--------------2--|
--2-----------------2--|
--------------------0--|


  H        E  S S Q     
--L--------------------|
--L--------2--2-0-3----|
--L--------------------|
--L--------------------|
--L--------------------|
--L--------------------|


  E  E  E  E  E  E  E  E   
-----------------------0--|
-----3--3--3--3--3-----3--|
-----0--0--0--0-----0-----|
--------------------------|
--------------------------|
--3-----------3-----------|


  E  E  E  E  E  E  Q     
-------------------------|
-----2--2--0--2--3--2----|
-----2--2--2--2--2--2----|
-------------------------|
--0-----------0----------|
-------------------------|


  E  E  E  E  E  E  E  S  S   
-----------------------------|
-----------------------0h-2h-|
-----2--4--4--2--4--4--------|
-----------------------------|
--2-----------2--------------|
-----------------------------|


  E  E  E  E  E  E  Q     
-------------------------|
--0----------------------|
-----4--4--2-----2--4----|
--------------4----------|
-----2--2--2--2--2-------|
-------------------------|


  E  E  E  E  E  E  E  E   
-----------------------0--|
-----3--3--3--3--3-----3--|
-----0--0--0--0-----0-----|
--------------------------|
--------------------------|
--3-----------3-----------|


  E  E  E  E  E  E  Q     
-------------------------|
-----2--2--0--2--3--2----|
-----2--2--2--2--2--2----|
-------------------------|
--0-----------0----------|
-------------------------|


  E  E  E  E  E  E  E  S  S   
-----------------------------|
-----------------------0h-2h-|
-----2--4--4--2--4--4--------|
-----------------------------|
--2-----------2--------------|
-----------------------------|


  E  E  Q    E.  E.  E   
---------------------2--|
--0----------3---5---0--|
-----4--4---------------|
------------------------|
-----2--2----2---2------|
---------------------3--|


  E  E  E  E  E  E  E  E   
-----2--2-----------------|
-----0--0--5--5--3--3--0--|
--------------------------|
--------------------------|
--------------------------|
--3--------3-----3--------|


  E  E  E  E  E  E  E  E   
--0--0--------------------|
--2-----2--2--------------|
--------------2--2--------|
--------------------2--4--|
--0-----------0-----0-----|
--------------------------|


  E  E  E  E  E  E  E  E   
--0--0--------------------|
--2-----2--2--------------|
--------------2--2--------|
--------------------2--4--|
--0-----------0-----0-----|
--------------------------|


  E  E  E  E  E  E  E  S S  
--0--0-----------------0-2-|
--------2--2---------------|
--------------2--2--2------|
---------------------------|
--0--------0-----0---------|
---------------------------|


  Q    E  Q    E  E  E   
--0-------3-------------|
--3-------3----3--3--0--|
--0-------0----0--0-----|
------------------------|
------------------------|
-------3----------------|


  E  E  E  E  E.  E.  E   
-------------------------|
--2--0--2--3--2---0---3--|
--2--2--2-----2-------0--|
-------------------------|
--0-----0-----0---0------|
----------------------3--|


  E  E  E  E  E  E  E  E   
--------------------------|
--------3-----2-----2-----|
-----0-----0-----------2--|
--0--------------2--------|
--------------0-----------|
--------------------------|


  Q.     E  E  E  E  E   
--0---------------------|
--0---------------3--5--|
--0------2--2--4--------|
--2---------------------|
--2---------------------|
--0------------0--------|


  Q    E  E  E  E  E  E   
--2----L-----------------|
--0----L--0--0--3--L--3--|
-------------------0-----|
-------------------------|
-------------------------|
--3-------------3--------|


  Q.     E  E  E  Q     
--0--------------------|
--2------2--2--0--2----|
-----------------------|
-----------------------|
--0------------0-------|
-----------------------|


  Q    E  E  E  Q.      
--0-------0-----2------|
--5----3--5-----0------|
-----------------------|
-----------------------|
--2----2-----2---------|
-----------------------|


  Q    E  E  E  E  E  E   
--L----------------------|
-------------------3--5--|
----------2--2--4--------|
-------------------------|
----------------2--------|
-------------------------|


  Q    E  E  E  E  E  E   
--2----L-----------------|
--0----L--0--0--3--L--3--|
-------------------0-----|
-------------------------|
-------------------------|
--3-------------3--------|


  Q.     E  E  E  Q     
--0--------------------|
--2------2--2--0--2----|
-----------------------|
-----------------------|
--0------------0-------|
-----------------------|


  Q    E  Q    E  E  E   
------------------------|
--5----3--2----3-----2--|
------------------4-----|
------------------------|
--2----2--2----2--2-----|
------------------------|


  E  E  E  E  E  E  E  E   
--------------------------|
--3-----5--L--3--L--2--L--|
--------------------------|
--------------------------|
--2--2--L--2--L--2--L--2--|
--------------------------|


  E  E  E  E  Q    E  E   
-----------3--3----------|
--2--3-----3--3-------2--|
-------------------4-----|
-------------------------|
-------------------2-----|
--------3----------------|


  E  E  E  E  E  E  E  E   
--------------------------|
--3-----5-----3-----2-----|
--------------------------|
--------------------------|
--0--0-----0-----0-----0--|
--------------------------|


  E  E  E  E  Q    E  E   
-----------0--0----------|
--2--3-----3--3-------2--|
-------------------4-----|
-------------------------|
--------0----------2-----|
-------------------------|


  E  E  E  E  E  E  E  E   
--------------------------|
--3-----5--L--3--L--2--L--|
--------------------------|
--------------------------|
--2--2--L--2--L--2--L--2--|
--------------------------|


  E  E  E  E  Q    E  E   
-----------3--3----------|
--2--3-----3--3-------2--|
-------------------4-----|
-------------------------|
-------------------2-----|
--------3----------------|


  E  E  E  E  E  E  E  E   
--------------------------|
--3-----5-----3-----0--2--|
--------------------------|
--------------------------|
--0--0-----0-----0--------|
--------------------------|


  E  E  E  E  E  E  E  E   
--------------------------|
--3-----3-----2-----2-----|
-----0-----0-----------2--|
-----------------2--------|
--------------0-----------|
--3-----------------------|


  Q.     E  E  E    
--0---------0--0--||
--0---------0--0--||
--0---------0--0--||
--2---------------||
--2---------------||
--0------0--------||



Enjoy!


Email/facebook : hi_i_am_david@hotmail.de (don't hesitate to contact me if there is any problem!)

David


Tap to rate this tab
 
# A B C D E F G H I J K L M N O P Q R S T U V W X Y Z