Song name
# A B C D E F G H I J K L M N O P Q R S T U V W X Y Z

Ne-yo - So Sick tab

Tabbed By Ryan Conway

Tempo = 80
           Intro                Alternative Easier To Remember Intro Below
E|-2-1--------------------------|----14-13-----------------------------|
B|-----2------------------------|----------14-11----------11-----------|
G|-------3-------1-3-----1------|---------------11-11-13----10-11-13---|
D|---------4---4-----3-4--------|--------------------------------------|
A|------------------------------|--------------------------------------|
E|------------------------------|--------------------------------------|


Tempo = 120

Part After roughly three intros

E|-----------------|-------------------|
B|---6-7---6-7---6-|-7---6-7---6-7-----|
G|-6-----6-----6---|---6-----6---------|
D|-----------------|-------------------|
A|-----------------|-------------------|
E|-----------------|-------------------|
Tap to rate this tab
 
# A B C D E F G H I J K L M N O P Q R S T U V W X Y Z