Song name
# A B C D E F G H I J K L M N O P Q R S T U V W X Y Z

Ne-yo - So Sick tab

Tabbed by: Josh Daley

Tuning: Eb Ab Db Gb Bb Eb


Intro:

The original:
--15-14--------------------------------|
--------15-12--------------------------|
--------------14---12-14----11-12-14---|  x2
-------------------------10------------|
---------------------------------------|
---------------------------------------|
Although I play it like this:
---------------------------|
--8-7----------------------|
------7-4-2---0-2-------2--|  x2
--------------------4-5----|
------------------3--------|
---------------------------|

--0--0--0--2--2--------|
--3--0--1--3--3--------|
--0--0--0--2--0--------|
--2--2--2--0--x--------|
--2--3--0--x--3--------|
--x--x--x--x--x--------|



Verse & Chorus:

--0--0--0--2--|
--3--0--1--3--|
--0--0--0--2--|  x2
--2--2--2--0--|
--2--3--0--x--|
--0--x--x--x--|

--0--0--0--2--2--------|
--3--0--1--3--3--------|
--0--0--0--2--0--------|
--2--2--2--0--x--------|
--2--3--0--x--3--------|
--x--x--x--x--x--------|



Bridge:

--2----0----2----0----|
--3----1----3----3----|
--2----0----2----0----|
--0----2----0----2----|
--x----3----x----3----|
--x----x----x----x----|

--2----0----2----0----|
--3----1----3----1----|
--2----0----2----0----|
--0----2----0----2----|
--x----3----x----3----|
--x----x----x----x----|
Tap to rate this tab
 
# A B C D E F G H I J K L M N O P Q R S T U V W X Y Z