Song name
# A B C D E F G H I J K L M N O P Q R S T U V W X Y Z

Ne-yo - So Sick tab

Hey guys..
easy to play tab, so sick by ne-yo.my ears just pick this sounds for me so yep i
made it myself..hope this helps ^.^

4th Capo

Bm       G           D          A
---------------    ------------------0-|
---3-2---------    -------------2--3---|
-------2-------    -------------2------|
----------4--5-    --0---4--0---2------|
---2-----------    --2-----------------|
----------3----    --3-----------------|

Bm       G           D           A
---------------    ---------------------|
---3-2---------    -------------2--3-2--|
-------2-------    -------------2-------|
----------4--5-    --0---4--0---2-------|
---2-----------    --2------------------|
----------3----    --3------------------|


      Bm       G           D            A
--------------------  ------------------0--|
-0h2--3-2-----------  -------------2--3----|
------2---2---------  -------------2-------|
------------4-0-----  --0---4--0---2-------|
------2-------------  --2------------------|
------------3-------  --3------------------|



--------------------------|
--------------------------|
--------------------------|
-----0---0---      (5-4-0-| 9x)
----4---4-----------------|
---3---5------------------|
Tap to rate this tab
# A B C D E F G H I J K L M N O P Q R S T U V W X Y Z