Song name
# A B C D E F G H I J K L M N O P Q R S T U V W X Y Z

Ne-yo - So Sick Remix tab

Help us improve GuitareTab! Take a short survey!
---------------------------------------------------
          "So Sick (Remix)" - Ne-Yo

http://www.lyricsmania.com/lyrics/ne-yo_lyrics_5002/other_lyrics_16522/so_sick_lyrics_191229.html
---------------------------------------------------
Tabbed by: Justin RiRaY
Email: Pakman7JR@hotmail.com     AIM: BeatPwner

Tuning: eBGDAE


          *** GUITAR 1 *** 

e|-14-13--------------------------------|
B|-------14-11--------------------------|
G|-------------11-11-11h13-10-10h11--13-| X 3 (7)
D|--------------------------------------|
A|--------------------------------------|
E|--------------------------------------|

 
e|--------------------|
B|--------------------|
G|---10h11p---10h11p--| X alot (quickly)
D|-11-------11--------|
A|--------------------|
E|--------------------|



          *** GUITAR 2 ***

e|--------------------------------|
B|--------------------------------|
G|---13-11------------------------|
D|---------13--------------11-----| X 3 (7)
A|------------14-----11-13----11--|
E|---------------14---------------|
Related for So Sick Remix tab