Song name
# A B C D E F G H I J K L M N O P Q R S T U V W X Y Z

Ne-yo - Make It Work tab

Ne-yo - Make It work (INTRO)
Tabbed by: Lawrence A. aka Monsteez

video sample: http://www.youtube.com/watch?v=g-JFaIreng0
(watch the video, it helps to learn)
Capo on 3
(tabs are relative to capo)
e|------------------X--------------------------------------------X--|
B|---0-0h1-0------1-X---5------3---------------0---------------1-X--|
G|-2---------2-0--2-X-----2----4--------0-2s4--0--------0-1s2--2-X--|
D|----------------3-X----------5---------------0--0---0--------3-X--|
A|------------------X-------------5---5--------------------------X--|
E|----------------1-X-1--------3----3----------0----0----------1-X--|
                    ^slap                                        ^slap 
e|-------------X-----3----------------------------------------------|
B|--1-3-3s5--1-X--5-----3---------------0---------------1-----------|
G|-----------2-X--------4--------0-2s4--0--------0-1s2--2-----------|
D|-----------3-X--------5---------------0--0---0--------------------|
A|-------------X-----------5---5------------------------3-----------|
E|-----------1-X-1------3----3----------0----0----------1-----------|
               ^slap
e|--------------|
B|---0-0h1-0----|
G|-2---------2-0|
D|--------------|
A|--------------|
E|--------------|
Tap to rate this tab
# A B C D E F G H I J K L M N O P Q R S T U V W X Y Z