Song name
# A B C D E F G H I J K L M N O P Q R S T U V W X Y Z

Neaera - Armamentarium tab

Armamentarium Neaera  

tuning: drop B

not perfect

Intro/Verse
|--------------------------------------------||----------|
|--------------------------------------------||----------|
|--------------------------------------------||----------|
|--------------------------------------------||-7-5------|
|----------------------------------55553333--||-----7-5--|
|-0000000100001-65035-0000000100001----------||----------|
PM....... ....    .   ....... ....

Bridge:
|---------------------------------------|
|---------------------------------------|
|---------------------------------------|
|---------------------------------------|
|--8-8-8-8-7-7-7-7-10-10-10-10-7-7-575--|
|-0-0-0-0-0-0-0-0-0--0--0--0--0-0-0-----|
  . . . . . . . . .  .  .  .  . . .

|---------------------------------------|
|---------------------------------------|
|---------------------------------------|
|---------------------------------------|
|--8-8-8-8-7-7-7-7-10-10-10-10-7-7-7810-|
|-0-0-0-0-0-0-0-0-0--0--0--0--0-0-0-----|
  . . . . . . . . .  .  .  .  . . .

Chorus:
|-----------------------------------------------------------|
|-----------------------------------------------------------|
|-----------------------------------------------------------|
|----------------121212121212121210101010101012121010887755-|
|1010101010101010-------------------------------------------|
|-----------------------------------------------------------|

Interlude:
|-------------------------------------------------------------------------|
|-------------------------------------------------------------------------|
|-------------------------------------------------------------------------|
|-------------------------------------------------------------------------|
|---------55555555--------55555555--------88888888--------1212121210101010|
|-88888888--------77777777--------55555555--------55555555----------------|
  ........        ........        ........        ........

|---------------------------|
|---------------------------|
|---------------------------|
|---------------------------|
|-----58----58----58----1210|
|-8888--7777--5555--5555----|
  ....  ....  ....  ....

|------------------------------------------------------|---------|
|------------------------------------------------------|---------|
|------------------------------------------------------|---------|
|------------------------------------------778877553300|101210875|
|---------55558888--------555558888--------------------|---------|
|-88888888--------77777777---------55555555------------|---------|

clean
|-----------------------------------------|
|-----------------------------------------|
|-----------------------------------------|
|5-5-5-5-12-12-12-12-10-10-10-12-10-8-7-5-|
|-----------------------------------------|
|-----------------------------------------|
Tap to rate this tab
# A B C D E F G H I J K L M N O P Q R S T U V W X Y Z