Song name
# A B C D E F G H I J K L M N O P Q R S T U V W X Y Z

Neaera - Heavenhell tab

-----------------------------------------------------------------------------
			     Neaera - Heavenhell
-----------------------------------------------------------------------------
Tabbed by: Marco
Email: marcokollenz@aol.com

Tuning: C G C F A D


OK This is my first TAB!!!
Some parts can be wrong!!!
pls correct me per e mail or comments ;)
the second Guitar is missing in the most parts
but the rest ist complete!!! + solo = )  if it is one :D
Have fun


Intro
Gtr I
  ~       ~       ~       ~
|----------------------------|
|----------------------------|
|----------------------------|
|-0-------3-------2-------5--|
|-0-------3-------2-------5--|
|-0-------3-------2-------5--|

Gtr II
          ?
          ?
          ?
          ?
          ?
          ?
Gtr I
  ~       ~	 ~   ~ 	   ~    ~
|-------------------------------------|
|-------------------------------------|
|-------------------------------------|
|2---0-------7------3---2-----5----2--|
|2---0-------7------3---2-----5----2--|
|2---0-------7------3---2-----5----2--|


Part I
     4x          4x          3x                      3x
|-----------|-----------|-----------|-----------|-----------|-----------|
|-----------|-----------|-----------|-----------|-----------|-----------|
|-----------|-----------|-----------|-----------|-----------|-----------|
|-----------|-----------|-----------|-----------|-----------|-----------|
|--000-000--|--333-333--|--222-222--|--333-222--|--555-555--|--222-222--|
|--000-000--|--333-333--|--222-222--|--333-222--|--555-555--|--222-222--|
PM ... ...     ... ...     ... ...     ... ...     ... ...     ... ...


    4x          3x                       3x                       3x
|-----------|-----------|-----------|-----------|-----------|-----------|-----------|
|-----------|-----------|-----------|-----------|-----------|-----------|-----------|
|-----------|-----------|-----------|-----------|-----------|-----------|-----------|
|-----------|-----------|-----------|-----------|-----------|-----------|-----------|
|--000-000--|--777-777--|--333-333--|--222-222--|--333-222--|--555-555--|--222-222--|
|--000-000--|--777-777--|--333-333--|--222-222--|--333-222--|--555-555--|--222-222--|
PM ... ...     ... ...     ... ...     ... ...     ... ...     ... ...     ... ...

Bridge I
|------------------------|
|------------------------|
|------------------------|
|-0---3---2---3-2---5---2|
|-0---3---2---3-2---5---2|
|-0---3---2---3-2---5---2|

Bridge II
|--------------------------------------------------------------|
|--------------------------------------------------------------|
|--------------------------------------------------------------|
|-------------------------------------------------------2------|
|------------8888-7777-3333-5555------------------------2------|
|--0#---7#------------------------2#---3333-2222---5#---2------|
pm .    .                         .    .... ....   .


Verse
>______________________________________________________________________________
         					       ~NOT SHURE~             |
|----------------------------------------------------------------|             |
|----------------------------------------------------------------|             |
|----------------------------------------------------------------|             |
|-5-----8---7---4-----4---8---8----5-----8---7-----8-7-----------|             |
|---0-0---0---0---0-0---0---0---0----0-0---0---0-5-----5-3-0-3-5-|             |
pm  . .   .   .   . .   .   .   .    . .   .   .                               |
  									       |  4x
    						   ~     NOT SHURE    ~        |
|-------------------------------------------------------------------------|    |
|-------------------------------------------------------------------------|    |
|-------------------------------------------------------------------------|    |
|-5-----8---7---4-----4---8---8----5-----8---7-----7----10---10-12-8-10---|    |
|---0-0---0---0---0-0---0---0---0----0-0---0---0---7-77----7--------------|    |
Pm  . .   .   .   . .  .    .   .    . .   .   .     ..    .                   |
_______________________________________________________________________________|

Refrain

>________________________________________________________________< 4x
     4x                         4x
|-----------|--------------|-----------|--------------|
|-----------|--------------|-----------|--------------|
|-----------|--------------|-----------|--------------|
|--8--7--5--|--8--5--8--5--|--7--5--3--|--7--3--7--3--|
|-----------|--------------|-----------|--------------|
|-----------|--------------|-----------|--------------|


---> 2x Verse

Breakdown!!!


|-----|
|-----|
|-----|
|--0--|
|--0--|
|--0--|


---> Part I
---> Bridge I
---> Bridge II
---> 2x Verse
---> 2x Refrain

Refrain 2!!!

>________________________________________________________________< 2x
     4x                         4x
|-----------|--------------|------------|---------------|
|-----------|--------------|------------|---------------|
|-----------|--------------|------------|---------------|
|--8--7--5--|--8--5--8--5--|--7--5--3---|--7--3--7--3---|   Gtr I
|-----------|--------------|------------|---------------|
|-----------|--------------|------------|---------------|
|	    |              |            |               |
|-----------|--------------|------------|---------------|
|-----------|--------------|------------|---------------|
|--7--5--3--|--7--3--7--3--|------------|---------------|
|-----------|--------------|--10--8--7--|--10--7--10--7-|   Gtr II
|-----------|--------------|------------|---------------|
|-----------|--------------|------------|---------------|


End

_______________________________________________________
                  				      |
|--------------------------------------------------|  |
|--------------------------------------------------|  |
|--------------------------------------------------|  |
|--0--0--3--0--3--0--0--2--0--2--0--0--0--0--1--1--|  |
|--0--0--3--0--3--0--0--2--0--2--0--0--0--0--1--1--|  |
|--0--0--3--0--3--0--0--2--0--2--0--0--0--0--1--1--|  |
pm .  .     .     .  .     .     .  .  .  .           |
						      |
|--------------------------------------------------|  |
|--------------------------------------------------|  |
|--------------------------------------------------|  |
|--0--0--3--0--3--0--0--2--0--2--0--0--0--3--2--1--|  |
|--0--0--3--0--3--0--0--2--0--2--0--0--0--3--2--1--|  |
|--0--0--3--0--3--0--0--2--0--2--0--0--0--3--2--1--|  |
pm .  .     .     .  .     .     .  .  .  .  .  .     |
					              |  2x
|--------------------------------------------------|  |
|--------------------------------------------------|  |
|--------------------------------------------------|  |
|--0--0--3--0--3--0--0--2--0--2--0--0--0--0--1--1--|  |
|--0--0--3--0--3--0--0--2--0--2--0--0--0--0--1--1--|  |
|--0--0--3--0--3--0--0--2--0--2--0--0--0--0--1--1--|  |
pm .  .     .     .  .     .     .  .  .  .           |
                                           |
|--------------------------------------------------|  |
|--------------------------------------------------|  |
|--------------------------------------------------|  |
|--0--0--3--0--3--0--0--2--0--2--0--0-/7-----------|  |
|--0--0--3--0--3--0--0--2--0--2--0--0----8-7-5-----|  |
|--0--0--3--0--3--0--0--2--0--2--0--0--------------|  |
pm .  .     .     .  .     .     .  .                 |
 				                      |
______________________________________________________|

   ~  
|-----|-----|
|-----|-----|
|-----|-----|
|--0--|--0--|
|--0--|--0--|
|--0--|--0--|


---> Part I
---> Bridge I
---> Bridge II +  Solo

Solo:

|----------------------------------------------------------------------|
|----------------------------------------------------------------------|
|-----------------------14---------------------------------------------|
|--12-----/15---14--15--------/10-9-10-9----9\2-2----2-3-2-------------|
|-----------------------------------------------------------3-3--/5----|
|----------------------------------------------------------------------|

|----------------------------------------------------------------------|
|----------------------------------------------------------------------|
|----------------------------------------------------------------------|
|-----------------------------/17 16 17 16--16\9-9--9-10-9-------------|
|----------------------------------------------------------10-10--/12--|
|----------------------------------------------------------------------|

|-------------------------------------|
|-------------------------------------|
|-------------------------------------|
|-------------------------------------|
|-5-----8---7---4-----4---8---8----5--|
|---0-0---0---0---0-0---0---0---0-----|
pm  . .   .   .   . .   .   .   .

END
Tap to rate this tab
 
# A B C D E F G H I J K L M N O P Q R S T U V W X Y Z