Song name
# A B C D E F G H I J K L M N O P Q R S T U V W X Y Z

Neal Century - Things Change tab


#----------------------------------PLEASE NOTE---------------------------------#
#This file is the author's own work and represents their interpretation of the #
#song. You may only use this file for private study, scholarship, or research. #
#------------------------------------------------------------------------------#



Things Change - as played by Neal Century





Acustic Guitar


- Intro Scene 02

-----3------------------------------------------------------------|
------------2------3------5---------------------------------------|
------------------------------------------------------------------|
------0------0------0------0--------------------------------------|
------3------3------3------5>3------------------------------------|
------------------------------------------------------------------|


-----3------------------------------------------------------------|
------------2------3------5---------------------------------------|
------------------------------------------------------------------|
------0------0------0------7--------------------------------------|
------3------3------3------7--------------------------------------|
------------------------------------------------------------------|


Scene 01

-----3-------------------------------------------------------------|
------------3------0------5----------------------------------------|
-------------------------------------------------------------------|
------0------0------2------0---------------------------------------|
------0------1------1------5>3-------------------------------------|
-------------------------------------------------------------------|


-----3-------------------------------------------------------------|
------------3------0------5----------------------------------------|
-------------------------------------------------------------------|
------0------0------2------7---------------------------------------|
------0------1------1------7---------------------------------------|
-------------------------------------------------------------------|


Bridge

-------------------------------------------------------------------|
-----7------5------3------2------3------2------0------5------------|
-------------------------------------------------------------------|
------9------7------5------4------5------4------2------7-----------|
------8------7------5------3------5------3------1------7-----------|
-------------------------------------------------------------------|


Secon Guitar

-----3-------------------------------------------------------------|
------------2------3------5----------------------------------------|
-------------------------------------------------------------------|
------0-0----0-0----0-0----0---------------------------------------|
-------3------3------3------3+5------------------------------------|
-------------------------------------------------------------------|
Tap to rate this tab
 
# A B C D E F G H I J K L M N O P Q R S T U V W X Y Z