Song name
# A B C D E F G H I J K L M N O P Q R S T U V W X Y Z

Neal Schon - Le Dome tab

-----------------------------------------------------------------------------
		   Le Dome - Neal Schon (GUITAR)
                       
-----------------------------------------------------------------------------
Tabbed by: Scotto10

Tuning: Standard

=============================================================================

Acoustic Guitar



                              Q     E.   E.   E   E   E   
E||-------|-------|-------|------------------------------|
B||-------|-------|-------|--10----11---13---11--10------|
G||-------|-------|-------|--------------------------12--|
D||-------|-------|-------|------------------------------|
A||-------|-------|-------|------------------------------|
E||-------|-------|-------|------------------------------|


                                          <  <                           
   |----3----|                                          |----3---|       
   E    E    E   E   E   E   Q     E      E  E   Q.     E    E   E   E   
--------------------------------------|---------------------------------|
--10h--11p--10------10----------------|---------------------------------|
----------------12------12--10----12--|--10--9----------9h--10p--9------|
--------------------------------------|---------12------------------12--|
--------------------------------------|---------------------------------|
--------------------------------------|---------------------------------|


   <   <   <   <   <   <   <   <      <   <   <   <   <   <     <   
   E   E   E   E   E   E   E   E      E   E   E   E   E   Q     E   
----------------------------------|--------------------------------|
----------------------------------|--------------------------------|
----------------------------------|--------------------------------|
--10----------12--10--------------|--------------------------------|
------13--12----------13--12--10--|------13--12--10------12----10--|
----------------------------------|--13--------------13------------|


   <     <                                         NH         NH  
   Q     H.                              Q    E    H          E   
----------------------|---------------|--------------------------|
----------------------|---------------|--------------------------|
----------------------|---------------|-------7--<>7--------<>L--|
----------------------|---------------|--7-----------------------|
----------------------|---------------|--------------------------|
--13----10------------|---------------|--------------------------|


  ^                                                              
  E  H.           E                      H         E   E   Q     
---------------------|-------|-------|--------------------------|
--6------------------|-------|-------|--------------------------|
-----7---------------|-------|-------|--14--------15--17--17----|
---------------------|-------|-------|--------------------------|
---------------------|-------|-------|--------------------------|
---------------------|-------|-------|--------------------------|


   Q     E   E   E   E   Q        W                 
------------------------------|--------------------|
------------------------------|--------------------|
---L----15--14------14--------|--------------------|
----------------17------15----|---L----------------|
------------------------------|--------------------|
------------------------------|--------------------|


  Q.     S  S   S   S  E   Q        Q.      E   E   Q.      
--------------------------------|--------------------------|
--------------------------------|--------------------------|
-----------14h-15p-14-----14----|---L------15--17--17------|
----------------------17--------|--------------------------|
--------------------------------|--------------------------|
--------------------------------|--------------------------|


  Q     E    E   E   E.   E.      W                         
------------------------------|--------------------|-------|
------------------------------|--------------------|-------|
-------15p--14-----------15---|---L----------------|-------|
----------------17--15--------|--------------------|-------|
------------------------------|--------------------|-------|
------------------------------|--------------------|-------|


   S  Q     E   E   Q.      S     E    E   E.   E   Q.     S  
------------------------------|------------------------------|
------------------------------|------------------------------|
--14-14----15--17--17-------L-|--15p--14-------14------------|
------------------------------|-----------17-------15--------|
------------------------------|------------------------------|
------------------------------|------------------------------|


   E   E   H.               E   E   H         E    E      Q     H.            
------------------------|-----------------------------|----------------------|
------------------------|-----------------------------|----------------------|
--14--------------------|-----------------------------|----------------------|
------15--14------------|------14--15--------15s--17--|--15----14------------|
------------------------|--17-------------------------|----------------------|
------------------------|-----------------------------|----------------------|


                                        NH    NH      ^                  
   |----3----|                                                           
   E    E    E   E   E   H              E     E   E   E   E    E   Q     
----------------------------------|-------------------------------------|
----------------------------------|-------------------------------------|
----------------------------------|--------------10--12--14p--12--12----|
--14h--15p--14--------------------|--------<>12-------------------------|
----------------17--15--17--------|--<>12-------------------------------|
----------------------------------|-------------------------------------|


                                           <   <   <   <   <     
  Q     E   E   E   E   E   E      E   E   E   E   E   E   Q     
-------------------------------|--------------------------------|
-------------------------------|--------------------------------|
-------------------------------|--------------------------------|
-------12--10----------10------|--------------------------------|
---------------12--10------12--|--10------12--10----------------|
-------------------------------|------13----------13--12--10----|


                          NH      NH                             
   W                      Q       H.                             
--------------------|--------------------------|---------------||
--------------------|--------------------------|---------------||
--------------------|--------------------------|---------------||
--------------------|----------<>12------------|---------------||
--------------------|--<>12--------------------|---------------||
---L----------------|--------------------------|---------------||




Duration Legend
---------------
W - whole
H - half
Q - quarter
E - 8th
S - 16th
T - 32nd
X - 64th
. - note dotted
|-n-|  - n-tuplets


Tablature Legend
----------------
L - tied note
x - dead note
g - grace note
(n) - ghost note
> - accentuded note
NH - natural harmonic
AH - artificial harmonic
TH - tapped harmonic
SH - semi harmonic
PH - pitch harmonic
h - hammer on
p - pull off
b - bend
br - bendRelease
pb - preBend
pbr - preBendRelease
brb - bendReleaseBend
\n/ - tremolo bar dip
\n - tremolo bar dive
-/n - tremolo bar Release up
/n\ - tremolo bar inverted dip
/n - tremolo bar return
-\n - tremolo bar Release down
S - shift slide
s - legato slide
/ -  slide into from below or out of upwards
\ -  slide into from above or out of downwards
~ - vibrato
W - wide vibrato
tr - trill
TP - tremolo picking
T - tapping
S - slap
P - pop
< - fade in
^ - brush up
v - brush down
Tap to rate this tab
 
# A B C D E F G H I J K L M N O P Q R S T U V W X Y Z