Song name
# A B C D E F G H I J K L M N O P Q R S T U V W X Y Z

Nearest The Positive - The Fire In Her Eyes chords

Highlighted       Show chord diagrams
D          Bm
Why are you, so far away?
      
 D                                     Bm
As the day breaks, wheres that beautiful face, why were you there on that tragic day.

D               Bm
As it drives me, drives me insane,
  
     D                                   Bm
As I'm holding on, to memories of your face, to memories of her face.


E|-------------------|
B|-------------------|
G|-------------------|
D|-------------------|
A|--0-0-0-4-4-4-5----|
D|-------------------|

Somethings not,   
E|-------------------|
B|-------------------|
G|-------------------|
D|-------------------|
A|--2-2-2-4-4-4-5----|
D|-------------------|


 quite right,
E|-------------------|
B|-------------------|
G|-------------------|
D|-------------------|
A|--0-0-0-4-4-4-5----|
D|-------------------|


it's gone.
E|--------------|
B|--------------|
G|--------------|
D|----------4---|
A|--2-2-2-5-----|
D|--------------|


D               Bm    
The fire in her eyes, 

Bm  Bsus2  Bm  Bsus2 G 
AM, I,     SO, LOST  without

        A                D
Without her it's just so hard

                Bm    Bm  Bsus2  Bm  Bsus2  G
The fire in her eyes, AM, I,     SO, LOST, without.

        A
Without her..




As it's gone, why were you in the car,
Theres love in these rose petals, and I'll never understand the twisted metal, as glass shines,
The memories of her eyes, the love was never lost, but I never said goodbye,

Somethings not, quite right, it's gone.

The fire in her eyes, AM, I, SO, LOST, without.
Without her it's just so hard.
The fire in her eyes, AM, I, SO, LOST, without.
Without her..
AM, I, SO, LOST, without.

Why were you in that car, your in a better place.
It's the memories of you're face.
And the worst part through eroded time,
I never said goodbye,
Never said goodbye.
And the worst part through eroded time,
I never said goodbye,
Never said goodbye.
And the worst part through eroded time,
I never said goodbye,
Never said goodbye.

The fire in her eyes,
I never said goodbye!
The fire in her eyes,
I never said goodbye!
Tap to rate this tab
 
# A B C D E F G H I J K L M N O P Q R S T U V W X Y Z