Guitaretab - guitar tabs
Song name
# A B C D E F G H I J K L M N O P Q R S T U V W X Y Z
Home / N / Nebula / Beyond tab

Nebula - Beyond tab

MUSIC: BEYOND
ARTIST: NEBULA
ALBUM: CHARGED

TUNING: Standard

 INTRO:
                        Part1          part2               fim
|--------------------------------|---------------|--------------|
|--------------------------------|---------------|--------------|
|--------------------------------|---------------|--------------|
|--------5-----------------------|---------------|--5--6--7-----|
|----5^7---7-5--7-5-3---5-3-5----|------------3--|--5--6--7-----|
|-----------------------------3--|-----0--3^5----|--3--4--5-----|

you repeats the first part1 __  2x
then it joins part1 e part2 __ 3x in 4x o play fim instead of part2


 VERSE:
|---------------------|---------------------------------------|
|---------------------|---------------------------------------|
|--------------7--5---|--------------7----5---5--------------|
|-7-7-7-7-7-7--7--5---|--7-7-7-7-7-7-7----5-5-5-5-6-7--------|
|-7-7-7-7-7-7--5--3---|--7-7-7-7-7-7-5----3-5-3-5-6-7---------|
|-5-5-5-5-5-5---------|--5-5-5-5-5-5--------3---3-4-5---------|
                   2x

REPEAT  VERSE__   4x


CHORUS:
(in the CHORUS the intro is played)

[ Tab from: http://www.guitaretab.com/n/nebula/142892.html ]
VERSE___ 4x


BRIDGE:

|-----------------------------------------------------------------------|
|-----------------------------------------------------------------------|
|-----------------------------------10-10-10-10-10--9-8---7-7-7-7-7-7---|
|7-7-7-7-7-7--8-9--10-10-10-10-10---10-10-10-10-10--9-8---7-7-7-7-7-7---|
|7-7-7-7-7-7--8-9--10-10-10-10-10---8--8--8--8--8---7-6---5-5-5-5-5-5---|
|5-5-5-5-5-5--6-7--8--8--8--8--8----------------------------------------|
                                                                     2X
|------------|
|------------|
|--XXXX------|
|--XXXX------|
|--XXXX------|
|------------|

CHORUS ____ 8x


SOLO:   (I DON'T KNOW)
(BASE OF THE SOLO TO PLAY VERSE)


THE MUSIC PUTS AN END TO THE SOLP.


I don't know if the music this correct one. . . Perhaps have, therefore it is the first
that I remove. her not this completes.
Has some bottom soils that I didn't get ribbon. . . excuse if has something wrong. . .
thinks this everything certain

Any doubts. . . Order for my e-mail  jean_n89@hotmail.com
Se houver duvidas .. mande pro meu email  jean_n89@hotmail.com


thanks
obrigado
Related for Beyond tab