Song name
# A B C D E F G H I J K L M N O P Q R S T U V W X Y Z

Nebula - Giant tab

so i haven't found any good tabs of this song so here you go i put the bass as the 
guitar and wrote as two guitars so you play both parts.

in order how its played

INTRO pt1 x2
-------------------------------------------------------------------------------|
-------------------------------------------------------------------------------|
-------------------------------------------------------------------------------|
-------------------------------------------------------------------------------|
-----------------------------------------1-------------------------------------|
-----1-3-3-3-3-3-3--1-3-3-3-3-3-3--1-3-3---3-3-1-3-3-3-3-3-3-------------------|

(Drum Fill)

intro pt2 x2 (guitar 1)
-------------------------------------------------------------------------------|
-------------------------------------------------------------------------------|
-------------------------------------------------------------------------------|
----3-5-5-5-5-5-5--3-5-5-5-5-5-5--3-5-5/8-5-5-3-5-5-5-5-5-5--------------------|
----3-5-5-5-5-5-5--3-5-5-5-5-5-5--3-5-5/8-5-5-3-5-5-5-5-5-5--------------------|
----1-3-3-3-3-3-3--1-3-3-3-3-3-3--1-3-3/6-3-3-1-3-3-3-3-3-3--------------------|


Intro pt2 (guitar 2) played second time
-------------------------------------------------------------------------------|
-------------------------------------------------------------------------------|
-----------------------------------------------------3h5-3h5-3h5-3h5-----------|
---------------------------------------------------------------------5---------|
-------------------------------------------------------------------------------|
-------------------------------------------------------------------------------|




Verse  X4
-------------------------------------------------------------------------------|
-------------------------------------------------------------------------------|
-------------------------------------------------------------------------------|
----3-5-5-5-5-5-5--3-5-5-5-5-5-5--3-5-5/8-5-5-3-5-5-5-5-5-5--------------------|
----3-5-5-5-5-5-5--3-5-5-5-5-5-5--3-5-5/8-5-5-3-5-5-5-5-5-5--------------------|
----1-3-3-3-3-3-3--1-3-3-3-3-3-3--1-3-3/6-3-3-1-3-3-3-3-3-3--------------------|

        breaking down.....        ..breaking down the wall


Chorus x2

  A5            F5                     G5
    Well im up here and you're down there,
    It's coming together, gettin' near,
    The time is right for you to find,
    the link between:

    F       G
    You and I
    You and I
    You and I
    You...

 D5

Guitar part in Chorus
----------------|
----3-----------|
----5b--5p3-----|
------------5---|
----------------|
----------------|


Intro pt2
Verse
Chorus


Interlude X4

------------------------------------|
------------------------------------|
---7-7-7-7-7-7-7-10-10-10-10-10-9-9-|
---7-7-7-7-7-7-7-10-10-10-10-10-9-9-|
---5-5-5-5-5-5-5-8-8-8-8-8-8-8--7-7-|


Intro pt 1
intro pt 2

solo (coming soon sorry)

F5 B5 F5 C5 X2 F5 G5

END----
Tap to rate this tab
# A B C D E F G H I J K L M N O P Q R S T U V W X Y Z