Song name
# A B C D E F G H I J K L M N O P Q R S T U V W X Y Z

Nebula - You Mean Nothing tab

Band - Nebula
Song - You Mean Nothing

Intro/verses:
E  --------------------------------------------------------------------|
B  --------------------------------------------------------------------|
G  --------------------------------------------------------------------|
D  --------------------------------------------------------------------|
A  -----------------5vv--------5-0-3---------------5v----0-3-5---------|
D  -12\---0-0-5-0-0-----0-5-7-----------0-0-5-0-0------0---------------|

E  --------------------------------------------------------------------|
B  --------------------------------------------------------------------|
G  --------------------------------------------------------------------|
D  --------------------------------------------------------------------|
A  ------------5v--------5-0-3-----------------3-5-3vvvv---------------|
D  --0-0-5-0-0----0-5-7--------5p0-5p0-5p0-5p0-------------------------|
Tap to rate this tab
 
# A B C D E F G H I J K L M N O P Q R S T U V W X Y Z