Song name
# A B C D E F G H I J K L M N O P Q R S T U V W X Y Z

Neck Deep - Growing Pains tab

Growing Pains - Neck Deep

Intro - play as many times as needed

D|--------------12-------12----9h10p9-7-5-------|
A|--10-----9-10-----9-10------------------------|
F|--9-------------------------------------------|  
C|--7-------------------------------------------|
G|----------------------------------------------|
C|----------------------------------------------|

Verse 1 - figure out strumming
D|------------------------------------------------------------------------10-9-------|
A|---------------------------9h10-10-10-109h10-12-10----9h10-10-10-109h10-------(x2)-|
F|----------7-----------7------------------------------------------------------------|  
C|--7---4---7---7---4---7------------------------------------------------------------|
G|--7---4---5---7---4---5------------------------------------------------------------|
C|--7---4-------7---4----------------------------------------------------------------|


Pre chorus
D|-9------9--7----9-----9h10p9-7-5----9-----9--7----9999-9h10p97~--7h9p75~-----|
A|--10-----10-10---10------------------10----10-10-----------------------------|
F|----9~-------------9~------------------9~------------------------------------|  
C|-----------------------------------------------------------------------------|
G|-----------------------------------------------------------------------------|
C|-----------------------------------------------------------------------------|

Chorus
D|--------------------------------------|
A|--------------------------------------|
F|------9---------7---------------------|  
C|-7----9----4----7------------7-6-4-2~-|
G|-7----7----4----5------------5-4-2-0~-|
C|-7---------4--------------------------|

Lead chorus
D|-----/12----------------/12---------------/12---------12-0-10-0-9-0-7-0--9h10p9-7-5-|
A|-/10------12-10~----/10------12-9~----/10------12-10~-------------------------------|
F|------------------------------------------------------------------------------------|  
C|------------------------------------------------------------------------------------|
G|------------------------------------------------------------------------------------|
C|------------------------------------------------------------------------------------| 

D|-----/12----------------/12--14-----------------------------------------------------|
A|-/10------12-10~----/10---------1414----9h10p9-7h9p7--------------------------------|
F|-----------------------------------------------------9h11p9-------------(x2)----9*--|  
C|------------------------------------------------------------11-9h11p9-7-------------|
G|------------------------------------------------------------------------------------|
C|------------------------------------------------------------------------------------|


                                          ^not 100% sure

Verse 2 - figure out strumming
D|----------------------------------|
A|----------------------------------|
F|----------------7-----------7-----|  
C|--7~----7---4---7---7---4---7-----|
G|--7~----7---4---5---7---4---5-----|
C|--7~----7---4-------7---4---------|

D|-9h10p9-779----9h10p9-10h12p10-10h1212-1212121299121212127h9p75----|
A|-------------------------------------------------------------------|
F|-------------------------------------------------------------------|  x2
C|-------------------------------------------------------------------|
G|-------------------------------------------------------------------|
C|-------------------------------------------------------------------|

Outro
D|--------------------------0-0-0-0000-0-0-0000-0-00-0-0-0-0000-0-0-0000------|
A|--------------------------121212999101010999101099-12121299910101099910-----|
F|----------------------------------------------------------------------------|  
C|-7777777777777777777777-----------------------------------------------------|
G|-7777777777777777777777-----------------------------------------------------|
C|-7777777777777777777777-----------------------------------------------------|

D|-0-0-0-0000-0-0-0000-0-00-0-0-0-0000-0-0-0000-0-0-0-------------------------|
A|-121212999101010999101099-12121299910101099910101010------------------------|
F|----------------------------------------------------------------------------|  
C|----------------------------------------------------------------------------|
G|----------------------------------------------------------------------------|
C|----------------------------------------------------------------------------|
Tap to rate this tab
# A B C D E F G H I J K L M N O P Q R S T U V W X Y Z