Song name
# A B C D E F G H I J K L M N O P Q R S T U V W X Y Z

Neck Deep - Candour tab

Standard tuning (I did this on an acoustic)
This is all by ear so if its off feel free to correct.
I was just attempting to help others who may have a better ear figure it out.

e--------------------------------------------------------------------|
B--------------------------------------------------------------------|
G--------------------------------------------------------------------|
D-------5-------|--------5-------|--------2-------|-------0-2-0-2----|
A---3-----3---3-|----3-----3---3-|----3-----3---3-|---3--------------|
E-5---5-----5---|--5---5-----5---|--1---1-----1---|-1---1------------|

e---------------------------------------------------------------------|
B---------------------------------------------------------------------|
G---------------------------------------------------------------------|
D-------5-------|--------5-------|--------2-------|-------2-----------|
A---3-----3---3-|----3-----3---3-|----3-----3---3-|---3-----3---3-----|
E-5---5-----5---|--5---5-----5---|--1---1-----1---|-1---1-----1-------|
Tap to rate this tab
 
# A B C D E F G H I J K L M N O P Q R S T U V W X Y Z