Song name
# A B C D E F G H I J K L M N O P Q R S T U V W X Y Z

Necrophagia - It Lives In The Woods tab

Band:  (Necrophagia)
Album: (Black Bllod Vomitorium)
Song:  (It lives in the woods)

Copyright (c)  (RED STREAM RECORDS) (2000)
Version 1.0 - (2000)

Transcribed By: (Aaron AKA englundisgod)
Email:          (goosebumps.fan@hotmail.com)


.  - palm mute           /  - slide up to
\  - slide down to       ~  - vibrato
h  - hammer on           b  - Bend
p  - pull off            Suffixes for bend
t  - tap                 f  - full bend    h - half bend
ph - pinched harmonic    q  - quarter bend t - tap bend
*  - see comment         ^  - Hold bend    r release bend
x  - Stuccatto           ~  - vibrato bend
,  - slight palm mute    () - ghost note, sustained note
"  - tremolo note        <> - Trill

Tuning C G D G A D

This was again learned by ear, And small parts from watching 
rehearsal sessions


0:00 - 0:26
|-------------------------------------------------------------------|
|-------------Song starts with evil dead intro----------------------|
|-------------------------------------------------------------------|
|-------------------------------------------------------------------|
|-------------------------------------------------------------------|
|-------------------------------------------------------------------|

0:27
|-------------------------------------------------------------------|
|-------------------------------------------------------------------|
|-------------hold eleventh fret until feedback---------------------|
|-------------------------------------------------------------------|
|--SLOW-SLIDE-------------------------------------------------------|
|--1-/-11---11~~~~~-------------------------------------------------|





 0:35   INTRO  x 8
|-------------------------------------------------------------------|
|-------------------------------------------------------------------|
|-----------trem pick-----------------------------------------------|
|-------------------------------------------------------------------|
|---777-888-777-888-777-888-777-333---------------------------------|
|---555-333-555-333-555-333-555-111---------------------------------|



 0:56   VERSE x 4
|-------------------------------------------------------------------|
|------------5---------------R-I-N-G-I-N-G--------------------------|
|---------4----4---4------------1---------1-------------------------|
|------3---------3---------3---------3------------------------------|
|--0-----R-I-N-G----------------------------------------------------|
|-------------------------------------------------------------------|






 1:10  INTRO RIFF  x 4
|-------------------------------------------------------------------|
|-------------------------------------------------------------------|
|-----------trem pick-----------------------------------------------|
|-------------------------------------------------------------------|
|---777-888-777-888-777-888-777-333---------------------------------|
|---555-333-555-333-555-333-555-111---------------------------------|


 1:21  VERSE x 4
|-------------------------------------------------------------------|
|------------5---------------R-I-N-G-I-N-G--------------------------|
|---------4----4---4------------1---------1-------------------------|
|------3---------3---------3---------3------------------------------|
|--0-----R-I-N-G----------------------------------------------------|
|-------------------------------------------------------------------|







1:35   INTRO RIFF  x 4
|-------------------------------------------------------------------|
|-------------------------------------------------------------------|
|-----------trem pick-----------------------------------------------|
|-------------------------------------------------------------------|
|---777-888-777-888-777-888-777-333---------------------------------|
|---555-333-555-333-555-333-555-111---------------------------------|



 1:46   BREAK  x 4
|-------------------------------------------------------------------|
|-------OPEN NOTES ALT PICKED (NOT DOWN PICKED)---------------------|
|-------------------------------------------------------------------|
|-------------------------------------------------------------------|
|--------------8-8-8----------------8-8-8---------------------------|
|-----00000----6-6-6-------00000----6-6-6---------------------------|
      .....                .....                
       PM                   PM                   






 1:57   INTRO RIFF  x 3
|-------------------------------------------------------------------|
|-------------------------------------------------------------------|
|-----------trem pick-----------------------------------------------|
|-------------------------------------------------------------------|
|---777-888-777-888-777-888-777-333---------------------------------|
|---555-333-555-333-555-333-555-111---------------------------------|

 2:05   CTND.
|-------------------------------------------------------------------|
|-------------------------------------------------------------------|
|-----------trem pick-----------------------------------------------|
|----------------------------------RING--UNTIL--FEEDBACK------------|
|---777-888-777-888-777-888----7----3-------------------------------|
|---555-333-555-333-555-333----5----1-------------------------------|




 2:21   DRUM BREAK




 2:30   INTERLUDE x 4
|-------------------------------------------------------------------|
|-------------------------------------------------------------------|
|--------------(OPEN NOTES-DOWN-PICKED)-----------------------------|
|-------------------------------------------------------------------|
|-----7-8---------------7-8-----------------------------------------|
|-----5-6---0-0-0-0-----5-6---0-0-0-0-------------------------------|
            . . . .           . . . .
             P M               P M

 2:42   CNTD  x   2
|-------------------------------------------------------------------|
|-------------------------------------------------------------------|
|-------------------------------------------------------------------|
|-------------------------------------------------------------------|
|--------------------7/8------------------------7/8-----------------|
|-00000000000000000--5/6-----00000000000000000--5/6-----------------|
  .................  . .     .................  . .
       ALL PM        PM           ALL PM        PM






 2:58   INTERLUDE # 2
|-------------------------------------------------------------------|
|-------------------------------------------------------------------|
|-------------------------------------------------------------------|
|-------------------------------------------------------------------|
|--8-HOLD AND RING UNTIL FEEBACK------------------------------------|
|--6----------------------------------------------------------------|



 3:09   Intro riff 4x
|-------------------------------------------------------------------|
|-------------------------------------------------------------------|
|-----------trem pick-----------------------------------------------|
|-------------------------------------------------------------------|
|---777-888-777-888-777-888----7----3-END---------------------------|
|---555-333-555-333-555-333----5----1-------------------------------|


This song is pretty repetitive, so I added timing to the riffs.
If anyone has comments or corrections dont hesitate and enjoy
Tap to rate this tab
 
# A B C D E F G H I J K L M N O P Q R S T U V W X Y Z