Song name
# A B C D E F G H I J K L M N O P Q R S T U V W X Y Z

Necrophagist - Seven tab

----------------------------------------------------------------------------
			     Seven-Vagiant
----------------------------------------------------------------------------
Tabbed by:Mathieupm13
Email:mathieupm13@hotmail.com

Tuning:Standard (E,A,D,G,B,e)

There is already a tab for this but.. well it sucks


Verse (play twice)
e|--------------------------------------------------------------|
B|--------------------------------------------------------------|
G|-4-4444444-----------------------------------4-4444444--------|
D|-4-4444444-(X4)-6-666666------2-2222222------4-4444444-(X4)---| 
A|-2-2222222------6-666666-(X4)-2-2222222-(X4)-2-2222222--------|
E|----------------4-444444------0-0000000-----------------------|


Pre-Chorus (play once)
e|------------------------------------------------------------------|
B|------------------------------------------------------------------|
G|-99-xx-99-xxxxxx-99-xx-99-xxxxxx----------------------------------|
D|-99-xx-99-xxxxxx-99-xx-99-xxxxxx-99999999999999999999999999999----|
A|-77-xx-77-xxxxxx-77-xx-77-xxxxxx-99999999999999999999999999999----|
E|---------------------------------77777777777777777777777777777----|

e|------------------------------------------------------------------|
B|------------------------------------------------------------------|
G|-99-xx-99-xxxxxx-99-xx-99-xxxxxx-1111111111111111111111111111-----|
D|-99-xx-99-xxxxxx-99-xx-99-xxxxxx-1111111111111111111111111111-----|
A|-77-xx-77-xxxxxx-77-xx-77-xxxxxx-9-9-9-9-9-9-9-9-9-9-9-9-9-9------|
E|------------------------------------------------------------------|
                                      (elevens not ones)


Chorus (play twice)
e|------------------------------------------------------------------------|
B|------------------------------------------------------------------------|
G|-4-444444----------------------------------4444444---------444444444444-|
D|-4-444444-(X4)-6-666666------2-222222------4444444-4444444-444444444444-|
A|-2-222222------6-666666-(X4)-2-222222-(X4)-2222222-4444444-222222222222-|
E|---------------4-444444------0-000000--------------2222222--------------|


Verse 2 (play twice)
e|--------------------------------------------------------------|
B|--------------------------------------------------------------|
G|-4-4444444-----------------------------------4-4444444--------|
D|-4-4444444-(X4)-6-666666------2-2222222------4-4444444-(X4)---| 
A|-2-2222222------6-666666-(X4)-2-2222222-(X4)-2-2222222--------|
E|----------------4-444444------0-0000000-----------------------|


Pre-Chorus (play once)
e|------------------------------------------------------------------|
B|------------------------------------------------------------------|
G|-99-xx-99-xxxxxx-99-xx-99-xxxxxx----------------------------------|
D|-99-xx-99-xxxxxx-99-xx-99-xxxxxx-99999999999999999999999999999----|
A|-77-xx-77-xxxxxx-77-xx-77-xxxxxx-99999999999999999999999999999----|
E|---------------------------------77777777777777777777777777777----|

e|------------------------------------------------------------------|
B|------------------------------------------------------------------|
G|-99-xx-99-xxxxxx-99-xx-99-xxxxxx-1111111111111111111111111111-----|
D|-99-xx-99-xxxxxx-99-xx-99-xxxxxx-1111111111111111111111111111-----|
A|-77-xx-77-xxxxxx-77-xx-77-xxxxxx-9-9-9-9-9-9-9-9-9-9-9-9-9-9------|
E|------------------------------------------------------------------|
                                      (elevens not ones)


Chorus (play twice)
e|------------------------------------------------------------------------|
B|------------------------------------------------------------------------|
G|-4-444444----------------------------------4444444---------444444444444-|
D|-4-444444-(X4)-6-666666------2-222222------4444444-4444444-444444444444-|
A|-2-222222------6-666666-(X4)-2-222222-(X4)-2222222-4444444-222222222222-|
E|---------------4-444444------0-000000--------------2222222--------------|


Bridge (play once)
e|---------------------------------------------------------------------|
B|---------------------------------------------------------------------|
G|-4~-------------------------------4~-----------44444444444444444-----|
D|-4~---------6~----------2~--------4~----4~-----44444444444444444-----|
A|-2~---------6~----------2~--------2~----4~-----22222222222222222-----|
E|------------4~----------0~--------------2~---------------------------|


Last Chorus (play once)
e|------------------------------------------------------------------------|
B|------------------------------------------------------------------------|
G|-4-444444----------------------------------4444444---------444444444444-|
D|-4-444444-(X4)-6-666666------2-222222------4444444-4444444-444444444444-|
A|-2-222222------6-666666-(X4)-2-222222-(X4)-2222222-4444444-222222222222-|
E|---------------4-444444------0-000000--------------2222222--------------|




Tap to rate this tab
# A B C D E F G H I J K L M N O P Q R S T U V W X Y Z