Song name
# A B C D E F G H I J K L M N O P Q R S T U V W X Y Z

Necrophagist - Onset Of Putrefaction tab

 Foul Body Autopsy --------------------------------------------------

 To Breathe In A Casket----------------------------------------------


Q.=140

6/8
  Gtr I
  E E E E E E   E E E E E E   E E E E E E   E E E E E E   E E E E E E
|-------------|-------------|-------------|-----------9-|-------------|
|-------------|-------------|-------------|---------8---|-------------|
|-------------|-------------|-------------|-------6-----|-------------|
|-------3-----|-------2-----|-------3-----|-------------|-2-----3-----|
|---1-----1---|---1-----1---|---1-----1---|---1---------|---1-----1---|
|-0---0-----3-|-0---0-----1-|-0---0-----3-|-0---0-------|-----0-----3-|
|
| Gtr II
| E E E E E E   E E E E E E   E E E E E E   E E E E E E   E E E E E E
|-------------|-------------|-------------|-------------|-------------|
|-------------|-------------|-------------|-----------5-|-------------|
|-------------|-------------|-------------|-------------|-------------|
|-------3-----|-------2-----|-------3-----|-------2h5---|-------3-----|
|---1-----1---|---1-----1---|---1-----1---|---1---------|---1-----1---|
|-0---0-----3-|-0---0-----1-|-0---0-----3-|-0---0-------|-0---0-----3-|


  E E E E E E   E E E E E E   E E E E E E   Q.   Q  E   H.
|-------------|-------------|-------------|-----------|---------------|
|-------------|---6---6---7-|---6---------|-----------|---------------|
|-------------|-------------|-------------|---------3-|---------------|
|-2-----5---6-|-----3---3---|-3---3-------|-----------|---------------|
|---1---------|-------------|-------4-4-4-|-4----1----|---------------|
|-----1---1---|-1-----------|-------0-0-0-|-0----0----|---------------|
|
| E E E E E E   E E E E E E   E E E E E E   Q.   Q  E   E  E E E E E
|-------------|-------------|-------------|-----------|---------------|
|-------------|-------------|-------------|-----------|---------------|
|-------------|-------------|-------------|-----------|---------------|
|-------2-----|---3---3---4-|---3---------|-----------|------2-----4--|
|---1-----1---|-------------|-------4-4-4-|-4----1----|----1-----2----|
|-0---1-----1-|-1---1---1---|-1---1-0-0-0-|-0----0--0-|-0------2------|


  E  E E E E E    E Q   E E E   E E E E E E   E E E E E E   E E E E E E
|--------------|--------------|-------------|-------------|--------------|
|--------------|--------------|-------------|-------------|--------------|
|------------9-|-10-----------|-------------|-------------|--------------|
|--------------|--------------|---------3---|-3---4---3---|-3---4--------|
|-7----8-7-8---|--------3-0-1-|-3-----------|-------------|-------3---3--|
|----6---------|--------------|---4-3-1---1-|---1---1---1-|---1-----1----|
|
| Q.     E E E    E E E E E E   E E E E E E   E E E E E E   E E E E E E
|--------------|--------------|-------------|-------------|--------------|
|--------------|--------------|---------6---|-6---7---6---|-6---7--------|
|--------------|--------------|-------------|-------------|--------------|
|--------------|--------------|-----------3-|---3---3---3-|---3----------|
|------------3-|--4-----3-0-1-|-3-----------|-------------|-------3---3--|
|--------0-1---|----0-1-------|---4-3-1-----|-------------|---------1----|


  E E E E E E   E E E E E E   E E E E E E   E E E E E E   E E E E E E
|-------------|-------------|-------------|-------------|--------------|
|-------------|-------------|-------------|-------------|--------------|
|-------------|-------------|---------3---|-------------|--------------|
|-------------|-------------|-------------|-------2-----|-3-----2------|
|-4-----3-----|-3---3-2-----|-------------|---------1---|---1-----1----|
|---0-1---0-1-|---0-1-0-0-0-|-0-2-1-2---2-|-1-0-1-----0-|-----3-----1--|
|
| E E E E E E   E E E E E E   E E E E E E   E E E E E E   E E E E E E
|-------------|-------------|-------------|-------------|--------------|
|-------------|-------------|-------------|-------------|--------------|
|-------------|-------------|-------------|-------------|--------------|
|-------------|-------------|---------4---|-------------|-3------------|
|-4-----3-----|-3---3-2-----|-------------|---------1---|---1-----1----|
|---0-1---0-1-|---0-1-0-0-0-|-0-2-1-2---2-|-1-0-1-0---0-|-----3-0---1--|


                                          3/8    6/8
  E E E E E E   E E E E E E   E E E Q.     Q  E   Q.     E  E E
|-------------|-------------|------------|------|---------------|
|---------6---|-6---7---6---|------------|------|---------------|
|-------------|-------------|------------|----3-|---------------|
|-5---6-3---3-|---3---3---3-|------------|----2-|-----------2-3-|
|-------------|-------------|-4-4-4-4----|-1--1-|--------1------|
|---1---------|-------------|-0-0-0-0----|-0----|---------------|
|
| E E E E E E   E E E E E E   E E E Q.     Q  E   E  E E Q.
|-------------|-------------|------------|------|---------------|
|-------------|-------------|------------|------|---------------|
|-------------|-------------|------------|------|---------------|
|-2-------3---|-3---4---4---|------------|----2-|------2--------|
|---1---------|-------------|-4-4-4-4----|-1----|----1----------|
|-----1-1---1-|---1---1---1-|-0-0-0-0----|-0----|-0-------------|


      E  E E   E  E E     E  E E   E  E E
||--------------------|-------------------|
||o-------------------|-------------------|
||--------------------|-------------------|
||--------------------|-------------------|
||o-[10]-----[10]-----|-[10]-----[10]-----|
||-------0-0------0-0-|------0-0------0-0-|
|
|     E  E E   E  E E     E  E E   E  E E
||--------------------|-------------------|
||o-------------------|-------------------|
||--------------------|-------------------|
||--------------------|-------------------|
||o-[10]-----[10]-----|-[10]-----[10]-----|
||-------0-0------0-0-|------0-0------0-0-|


  E E E   E  E E   E E E E E E    Q   E   E  E E
|----------------|-------------|-----------------|
|----------------|-------------|-----------------|
|---6------------|-------------|-----------------|
|-5--------------|-------------|-----------------|
|-------[10]-----|-------------|-[7]----[10]-----|
|-----0------0-0-|-0h1h2h5p2p1-|------0------0-0-|
|
| E E E   E  E E   E E E E E E    Q   E   E  E E
|----------------|-------------|-----------------|
|----------------|-------------|-----------------|
|----------------|-------------|-----------------|
|---8------------|-------------|-----------------|
|-7-----[10]-----|-------------|--------[10]-----|
|-----0------0-0-|-0h1h2h5p2p1-|--0---0------0-0-|


    E  E E   E  E E   Q  E   E  E E   E E E E E E
|-------------------|---------------|--------------||
|-------------------|---------------|-------------o||
|-------------------|---------------|--------------||
|-------------------|---------------|--------------||
|-[10]-----[10]-----|-4--4-[10]---0h|=1p0h4p1p0h1-o||
|------0-0------0-0-|-----------0---|--------------||
|
|   E  E E   E  E E   Q  E   E  E E   E E E E E E
|-------------------|---------------|--------------||
|-------------------|---------------|-------------o||
|-------------------|---------------|--------------||
|-------------------|---------------|--------------||
|-[10]-----[10]-----|-1--1-[10]-----|-------------o||
|------0-0------0-0-|-----------0-0h|=1p0h5p2p1h2--||


   Q.     E  E E     E  E E   E  E E
|----------------|-------------------|
|----------------|-------------------|
|----------------|-------------------|
|----------------|-------------------|
|--3----[10]-----|-[10]-----[10]-----|
|--1---------0-0-|------0-0------0-5-|
|
|  Q.     E  E E     E  E E   E  E E
|----------------|-------------------|
|----------------|-------------------|
|----------------|-------------------|
|-10-------------|-------------------|
|--8----[10]-----|-[10]-----[10]-----|
|------------0-0-|------0-0------0-5-|


  Q.     E  E E     E  E E E E E   Q.     E  E E
|---------------|----------------|----------------|
|---------------|----------------|----------------|
|---------------|----------------|----------------|
|---------------|----------------|----------------|
|-4----[10]-----|-[10]-----------|-3----[10]------|
|-2---------0-0-|------0-5-2-1-2-|-1---------0-0--|
|
| Q.     E  E E     E  E E E E E   Q.     E  E E
|---------------|----------------|----------------|
|---------------|----------------|----------------|
|---------------|----------------|----------------|
|---------------|----------------|----------------|
|-4----[10]-----|-[10]-----------|-3----[10]------|
|-2---------0-0-|------0-5-2-1-2-|-1---------0-0--|


    E  E E   E  E E   Q.   E E E   E E E Q  E
|-------------------|------------|------------|
|-------------------|------------|------------|
|-------------------|------------|-------1----|
|-------------------|------------|-----2------|
|-[10]-----[10]---7-|-4------1-0-|-1-4--------|
|------0-0------0---|------0-----|------------|
|
|   E  E E   E  E E   Q.   E E E   E E E Q  E
|-------------------|------------|------------|
|-------------------|------------|------------|
|-------------------|------------|------------|
|-------------------|------------|-------3----|
|-[10]-----[10]---3-|-1----------|-----4------|
|------0-0------0---|------0-1-0-|-1-4--------|


      E  E E   E  E E     E  E E   E  E E   E E E   E  E E   E E E E E E
||--------------------|-------------------|----------------|-------------|
||o-------------------|-------------------|----------------|-------------|
||--------------------|-------------------|---6------------|-------------|
||--------------------|-------------------|-5--------------|-------------|
||o-[10]-----[10]-----|-[10]-----[10]-----|-------[10]-----|-------------|
||-------0-0------0-0-|------0-0------0-0-|-----0------0-0-|-0h1h2h5p2p1-|
|
|     E  E E   E  E E     E  E E   E  E E   E E E   E  E E   E E E E E E
||--------------------|-------------------|----------------|-------------|
||o-------------------|-------------------|----------------|-------------|
||--------------------|-------------------|----------------|-------------|
||--------------------|-------------------|---8------------|-------------|
||o-[10]-----[10]-----|-[10]-----[10]-----|-7-----[10]-----|-------------|
||-------0-0------0-0-|------0-0------0-0-|-----0------0-0-|-0h1h2h5p2p1-|


   Q   E   E  E E     E  E E   E  E E   Q  E   E  E E   E E E E E E
|-----------------|-------------------|---------------|---------------||
|-----------------|-------------------|---------------|--------------o||
|-----------------|-------------------|---------------|---------------||
|-----------------|-------------------|---------------|---------------||
|-[7]----[10]-----|-[10]-----[10]-----|-4--4-[10]---0h|=1p0h4p1p0h1--o||
|------0------0-0-|------0-0------0-0-|-----------0---|---------------||
|
|  Q   E   E  E E     E  E E   E  E E   Q  E   E  E E   E E E E E E
|-----------------|-------------------|---------------|---------------||
|-----------------|-------------------|---------------|--------------o||
|-----------------|-------------------|---------------|---------------||
|-----------------|-------------------|---------------|---------------||
|--------[10]-----|-[10]-----[10]-----|-1--1-[10]-----|--------------o||
|--0---0------0-0-|------0-0------0-0-|-----------0-0h|=1p0h5p2p1h2---||


   Q.     E  E E     E  E E   E  E E
|----------------|-------------------|
|----------------|-------------------|
|----------------|-------------------|
|----------------|-------------------|
|--3----[10]-----|-[10]-----[10]-----|
|--1---------0-0-|------0-0------0-5-|
|
|  Q.     E  E E     E  E E   E  E E
|----------------|-------------------|
|----------------|-------------------|
|----------------|-------------------|
|-10-------------|-------------------|
|--8----[10]-----|-[10]-----[10]-----|
|------------0-0-|------0-0------0-5-|


  Q.     E  E E     E  E E E E E   Q.     E  E E
|---------------|----------------|----------------|
|---------------|----------------|----------------|
|---------------|----------------|----------------|
|---------------|----------------|----------------|
|-4----[10]-----|-[10]-----------|-3----[10]------|
|-2---------0-0-|------0-5-2-1-2-|-1---------0-0--|
|
| Q.     E  E E     E  E E E E E   Q.     E  E E
|---------------|----------------|----------------|
|---------------|----------------|----------------|
|---------------|----------------|----------------|
|---------------|----------------|----------------|
|-4----[10]-----|-[10]-----------|-3----[10]------|
|-2---------0-0-|------0-5-2-1-2-|-1---------0-0--|


                                                             3/8
    E  E E   E  E E   Q.   E E E   E E E E E E   E E E Q.     Q.
|-------------------|------------|-------------|------------|------|
|-------------------|------------|-------------|------------|------|
|-------------------|------------|-------1-----|------------|------|
|-------------------|------------|-----2-------|-2-----4----|------|
|-[10]-----[10]---7-|-4------1-0-|-1-4-----1---|---0--------|------|
|------0-0------0---|------0-----|-----------0-|-----0------|------|
|
|   E  E E   E  E E   Q.   E E E   E E E E E E   E E E Q.     Q.
|-------------------|------------|-------------|------------|------|
|-------------------|------------|-------------|------------|------|
|-------------------|------------|-------------|------------|------|
|-------------------|------------|-------3-----|-2-----4----|------|
|-[10]-----[10]---3-|-1----------|-----4---1---|---0--------|------|
|------0-0------0---|------0-1-0-|-1-4-------0-|-----0------|------|


 6/8
  E E E E E E   E E E E E E   E E E E E E
|-------------|-------------|-------------|
|-------------|-------------|-6-----5-----|
|-------------|-------------|-----4-------|
|-3-----2-----|-4-----3-----|---3-----2-3-|
|-----1---0---|-----1-----1-|-------------|
|---0-------0-|---0-----0---|-------------|
|
| E E E E E E   E E E E E E   E E E E E E
|-------------|-------------|-------------|
|-------------|-------------|-------------|
|-------------|-------------|-------------|
|-3-----2-----|-4-----3-----|-3-----2-----|
|-----1---0---|-----1-----1-|-----1-------|
|---0-------0-|---0-----0---|---1-----0-1-|


    E  E E   E  E E     E  E E   E  E E
|-------------------|-------------------|
|-------------------|-------------------|
|-------------------|-------------------|
|-------------------|---------------2-3-|
|-[10]-----[10]-----|-[10]-----[10]-----|
|------0-0------0-0-|------0-0----------|
|
|   E  E E   E  E E     E  E E   E  E E
|-------------------|-------------------|
|-------------------|-------------------|
|-------------------|-------------------|
|-------------------|-------------------|
|-[10]-----[10]-----|-[10]-----[10]-----|
|------0-0------0-0-|------0-0------0-1-|


 6/8
  E E E E E E   E E E   E  E E     E  E E E E E   Q.   Q.     H.
|-------------|-2--------------|----------------|-----------|-------|
|-6-----5-----|----------------|----------6-----|-5---------|-5-----|
|-------------|----------------|--------------4-|-----------|-3-----|
|---2-3---2-3-|---2-3----------|------------3---|-----------|-2-----|
|-------------|-------[10]-----|-[10]-----------|-----------|-------|
|-------------|------------0-0-|------0-0-------|-----------|-------|
|
| E E E E E E   E E E   E  E E     E  E E E E E   Q.   Q.     H.
|-------------|----------------|----------------|-----------|-------|
|-------------|----------------|----------------|-----------|-------|
|-------------|----------------|----------------|-----------|-3-----|
|-3-----2-----|-4--------------|----------3-----|-2---------|-2-----|
|-----1-----0-|-----1-[10]-----|-[10]---------1-|-----------|-1-----|
|---0-----0---|---0--------0-0-|------0-0---1---|-----------|-------|


  +Q   E E E E   Q.   Q.     E E E E E E   E E E E E E   E E E E E E
|--------------|-----------|-------------|-------------|--------------|
|-(5)----------|-----------|-------------|-------------|--------------|
|-(3)----------|-----------|-------------|-------------|--------------|
|-(2)----------|-----------|-3-----2-----|-4-----3-----|-3-----2-2-3--|
|--------------|-1---------|-----1---0---|-----1-----1-|---1----------|
|------0-1-0-3-|-----------|---0-------0-|---0-----0---|-----1--------|
|
| +Q   E E E E   Q.   Q.     E E E E E E   E E E E E E   E E E E E E
|--------------|-----------|-------------|-------------|--------------|
|--------------|-----------|-------------|-------------|--------------|
|-(3)----------|-----------|-------------|-------------|--------------|
|-(2)----------|-----------|-3-----2-----|-4-----3-----|-3-----2------|
|-(1)----------|-----------|-----1---0---|-----1-----1-|-----1--------|
|------0-1-0-1-|-2---------|---0-------0-|---0-----0---|---1-----0-1--|


    E  E E   E  E E     E  E E   E  E E   H.
|-------------------|-------------------|---------|
|-------------------|-------------------|---------|
|-------------------|-------------------|-9-------|
|-------------------|-------------------|---------|
|-[10]-----[10]-----|-[10]-----[10]-----|-7-------|
|------0-0------0-0-|------0-0------0-1-|---------|
|
|   E  E E   E  E E     E  E E   E  E E   H.
|-------------------|-------------------|---------|
|-------------------|-------------------|---------|
|-------------------|-------------------|-9-------|
|-------------------|-------------------|---------|
|-[10]-----[10]-----|-[10]-----[10]-----|-7-------|
|------0-0------0-0-|------0-0------0-1-|---------|


   Q.   Q.      E  E E  E  E E     Q   E E E E
|------------|-----------------|---------------|
|------------|-----------------|---------------|
|-10----6----|-----------------|---------------|
|------------|-----------------|-[10]----------|
|--8----4----|-<7>-----<7>-----|---------------|
|------------|-----0-0-----0-0-|-------3-1-0-1-|
|
|  Q.   Q.      E  E E  E  E E     Q   E E E E
|------------|-----------------|---------------|
|------------|-----------------|---------------|
|-10----6----|-----------------|---------------|
|------------|-----------------|-[10]----------|
|--8----4----|-<7>-----<7>-----|---------------|
|------------|-----0-0-----0-0-|-------3-1-0-1-|


  H.        Q.   Q.     E E E E E E   E E E   E  E E     E  E E   E  E E
|---------|-----------|-------------|-2--------------|--------------------|
|---------|-----------|-6-----5-----|----------------|--------------------|
|---------|-----------|-------------|----------------|--------------------|
|---------|-----------|---2-3---2-3-|---2-3----------|--------------------|
|-2-------|-3----4----|-------------|-------[10]-----|-[10]-----[10]------|
|-0-------|-1----0----|-------------|------------0-0-|------0-0------0-0--|
|
| H.        Q.   Q.     E E E E E E   E E E   E  E E     E  E E   E  E E
|---------|-----------|-------------|----------------|--------------------|
|---------|-----------|-------------|----------------|--------------------|
|---------|-----------|-------------|----------------|--------------------|
|---------|-----------|-3-----2-----|-4--------------|--------------------|
|-2-------|-3----4----|-----1-----0-|-----1-[10]-----|-[10]-----[10]------|
|-0-------|-1----0----|---0-----0---|---0--------0-0-|------0-0------0-0--|


    E  E E Q.     +Q.    Q.     Q.    E  E E    E  E E   Q   E   E E E Q.
|---------------|-------------|--------------|-----------------|-------------|
|---------------|-------------|--------------|-----------------|-------------|
|----------9----|-(9)---10----|-6------------|-----------------|-------------|
|---------------|-------------|--------------|---------[10]----|-------------|
|-[10]-----7----|-(7)----8----|-4----<7>-----|-<7>-------------|-------2-----|
|------0-0------|-------------|----------0-0-|-----0-0-------3-|-1-0-1-0-----|
|
|   E  E E Q.     +Q.    Q.     Q.    E  E E    E  E E   Q   E   E E E Q.
|---------------|-------------|--------------|-----------------|-------------|
|---------------|-------------|--------------|-----------------|-------------|
|----------9----|-(9)---10----|-6------------|-----------------|-------------|
|---------------|-------------|--------------|---------[10]----|-------------|
|-[10]-----7----|-(7)----8----|-4----<7>-----|-<7>-------------|-------2-----|
|------0-0------|-------------|----------0-0-|-----0-0-------3-|-1-0-1-0-----|


              9/8                6/8
  +Q.   Q.     Q.   E E E E E E   Q.   Q.
|------------|------------------|---------|
|------------|------6-----5-----|-7-------|
|------------|------------------|---------|
|------------|--------2-3---2-3-|---------|
|-(2)---3----|-4----------------|---------|
|-(0)---1----|-0----------------|---------|
|
| +Q.   Q.     Q.   E E E E E E   Q.   Q.
|------------|------------------|---------|
|------------|------------------|---------|
|------------|------------------|---------|
|------------|------3-----2-----|-4-------|
|-(2)---3----|-4--------1-----0-|---------|
|-(0)---1----|-0------0-----0---|---------|


    E E E E E E   E E E E E E  3x E E E E E E   E E E E E E     E E E E E E
||--------------|--------------||-------------|-------------||--------------|
||o-------------|-------------o||-----9-------|---6---------||o-------------|
||--------------|---5-----6----||---6---6---7-|-6---6-7---6-||--------------|
||------3-----2-|-3---2-3---2--||-5-------5---|---------8---||------3-----2-|
||o---1---1-----|-------------o||-------------|-------------||o---1---1-----|
||--0-------1---|--------------||-------------|-------------||--0-------1---|
|
|   E E E E E E   E E E E E E  3x E E E E E E   E E E E E E     E E E E E E
||--------------|--------------||-------------|-------------||--------------|
||o-------------|-------------o||-------------|-------------||o-------------|
||--------------|---5-----6----||-------------|---5-----6---||--------------|
||------3-----2-|-3---2-3---2--||-----3-----2-|-3---2-3---2-||------3-----2-|
||o---1---1-----|-------------o||---1---1-----|-------------||o---1---1-----|
||--0-------1---|--------------||-0-------1---|-------------||--0-------1---|


  E E E E E E     E E E E E E   E E E E E E   H.             E E E E E E
|--------------||-------------|-------------|--------------|--------------|
|-------------o||-----9-------|---6---------|--------------|--------------|
|---5-----6----||---6---6---7-|-6---6-7---6-|--------------|-----3-----2--|
|-3---2-3---2--||-5-------5---|---------8---|--------------|---2-----1----|
|-------------o||-------------|-------------|--------------|-1-----0------|
|--------------||-------------|-------------|--------------|--------------|
|
| E E E E E E     E E E E E E   E E E E E E   E  E E E E E   E E E E E E
|--------------||-------------|-------------|--------------|--------------|
|-------------o||-------------|-------------|--------------|--------------|
|---5-----6----||-------------|---5-----6---|--------------|--------------|
|-3---2-3---2--||-----3-----2-|-3---2-3---2-|------2-----3-|-----4-----3--|
|-------------o||---1---1-----|-------------|----1-----1---|---1-----1----|
|--------------||-0-------1---|-------------|-0------1-----|-0-----1------|


  E E E E  E E    H     +E   E    Q.    Q.     E E E E E E   E E E E E E
|--------------|---------------|-------------|-------------|--------------|
|--------------|---------------|-------------|-------------|--------------|
|--------------|---------------|-------------|-----3-----2-|--------------|
|------------2-|---------------|-------------|---2-----2---|-----2-----3--|
|-0-1-4-0--3---|--1-----(1)--1-|--3-----2----|-1-----3-----|---0-----1----|
|--------------|--1-----(1)--1-|--3-----2----|-------------|-0-----0------|
|
| E E E Q.        H     +E   E    Q.    Q.     E E E E E E   E E E E E E
|--------------|---------------|-------------|-------------|--------------|
|--------------|---------------|-------------|-------------|--------------|
|--------------|-10----(10)-10-|-12----11----|-------------|--------------|
|-----2--------|--8-----(8)--8-|-10-----9----|-----4-----3-|-----2-----3--|
|-1-4----------|---------------|-------------|---0-----1---|---0-----1----|
|--------------|---------------|-------------|-0-----0-----|-0-----0------|


                             7/8             6/8
  E E E E E E   E E E E E E   E E E E E E E   E E E E E E
|-------------|-------------|---------------|-------------|
|-------------|-------------|---------------|-------------|
|-------------|-------------|---6-------5---|-------------|
|-------------|-----2-----3-|-----7-6-----3-|---2-----3---|
|-----3-----4-|---0-----1---|-4-------3-----|-----0-----1-|
|-0-1---0-1---|-0-----0-----|---------------|-0-----1-----|
|
| E E E E E E   E E E E E E   E E E E E E E   E E E E E E
|-------------|-------------|---------------|-------------|
|-------------|-------------|---------------|-------------|
|-------------|-------------|---3-------2---|-------------|
|-------------|-----2-----3-|-----3-2-----3-|---2-----3---|
|-----3-----4-|---0-----1---|---------1-----|-----0-----1-|
|-0-1---0-1---|-0-----0-----|-1-------------|-0-----1-----|


               5/8         6/8
  E E E E E E   E E E E E   Q  Q  Q
|-------------|-----------|----------|
|-------------|-----------|-7-----6--|
|-------------|-----------|-4--x--3--|
|-------------|---2-----3-|----x-----|
|---3-----4---|-----0-1---|----------|
|-0---1-0---1-|-0---------|----------|
|
| E E E E E E   E E E E E   Q  Q  Q
|-------------|-----------|----------|
|-------------|-----------|----------|
|-------------|-----------|----------|
|-------------|---2-----3-|----------|
|---3-----4---|-----0-1---|-7--8--6--|
|-0---1-0---1-|-0---------|-7--8--6--|


  E E E E E E   E E E E E E   E E E E E E
|-------------|-------------|--------------|
|-------------|-------------|--------------|
|-------------|-------------|--------------|
|-----2-----3-|-------------|-----2-----3--|
|---0-----1---|-----3-----4-|---1-----1----|
|-0-----0-----|-0-1---0-1---|-0-----0------|
|
| E E E E E E   E E E E E E   E E E E E E
|-------------|-------------|--------------|
|-------------|-------------|--------------|
|-------------|-------------|--------------|
|-----2-----3-|-------------|-----2-----3--|
|---0-----1---|-----3-----4-|---1-----1----|
|-0-----0-----|-0-1---0-1---|-0-----0------|


 7/8             6/8
  E E E E E E E   E E E E E E   H.
|---------------|-------------|---------|
|---------------|-------------|---------|
|---6-------5---|-----6-----6-|-3-------|
|-----7-6-----3-|---3-----3---|-2-------|
|-4-------3-----|-------1-----|-1-------|
|---------------|-0-----------|---------|
|
| E E E E E E E   E E E E E E   H.
|---------------|-------------|---------|
|---------------|-------------|---------|
|---3-------2---|-------------|---------|
|-----3-2-----3-|-----2-----3-|---------|
|---------1-----|---1-----1---|---------|
|-1-------------|-0-----0-----|-0-------|


  +Q   E Q.     +H     +E   E    Q.   Q.     H.
|-------------|---------------|------------|-------|
|-------------|---------------|------------|-------|
|-(3)----3----|-(3)----(3)-12-|-11---------|-------|
|-(2)--5-5----|-(5)----(5)-10-|--9---------|-------|
|-(1)--7------|---------------|------------|-------|
|-------------|---------------|------------|-------|
|
| +Q   E Q.     +H     +E   E    Q.   Q.     H.
|-------------|---------------|------------|-------|
|-------------|---------------|------------|-------|
|-------------|---------------|------------|-------|
|--------5----|-(5)----(5)--5-|--4---------|-------|
|--------7----|-(7)----(7)--3-|--2---------|-------|
|-(0)--0------|---------------|------------|-------|


  Q.   Q.     Q.    Q   E    Q.   Q.     E E E E E E   Q.   Q.
|-----------|-------------|------------|-------------|------------|
|-----------|-------------|------------|-------------|------------|
|-----------|-3----11--12-|-10---------|-------------|------------|
|------2----|-5-----9--10-|--8----4----|---2---------|------2-----|
|-2---------|-------------|------------|-----0-1---1-|-2----------|
|-0---------|-------------|------------|-0-------1---|-0----------|
|
| Q.   Q.     Q.    Q   E    Q.   Q.     E E E E E E   Q.   Q.
|-----------|-------------|------------|-------------|------------|
|-----------|-------------|------------|-------------|------------|
|-----------|-------------|------------|-------------|------------|
|------5----|-5-----------|------------|---2---------|------5-----|
|-2---------|-7-----7---8-|--6----6----|-----0-1-----|-2----------|
|-0---------|-------7---8-|--6---------|-0-------1-1-|-0----------|


                          9/8
  Q.    Q   E    H.        E E E E E E E E E
|-------------|----------|-------------------|
|-------------|----------|-------------------|
|-3----12--11-|-10-------|-------------------|
|-5----10---9-|--8-------|-----3-----2h3h5p3-|
|-------------|----------|---1---1-----------|
|-------------|----------|-0-------1---------|
|
| Q.    Q   E    H.        E E E E E E E E E
|-------------|----------|-------------------|
|-------------|----------|-------------------|
|-------------|----------|-------------------|
|-5-----------|----------|-----------2h3h5p3-|
|-7-----8---7-|--6-------|---1-4-1-----------|
|-------8---7-|--6-------|-0-------1---------|


 6/8
  Q.   Q.     Q.    Q   E    Q.   Q.
|-----------|-------------|------------|
|-----------|-------------|------------|
|-----------|-3----11--12-|-10---------|
|------2----|-5-----9--10-|--8----4----|
|-2---------|-------------|------------|
|-0---------|-------------|------------|
|
| Q.   Q.     Q.    Q   E    Q.   Q.
|-----------|-------------|------------|
|-----------|-------------|------------|
|-----------|-------------|------------|
|------5----|-5-----------|------------|
|-2---------|-7-----7---8-|--6----6----|
|-0---------|-------7---8-|--6---------|


  E E E E E E   Q.   Q.     Q.    Q   E
|-------------|-----------|-------------|
|-------------|-----------|-------------|
|-------------|-----------|-3----12--11-|
|---2---------|------2----|-5----10---9-|
|-----0-1---1-|-2---------|-------------|
|-0-------1---|-0---------|-------------|
|
| E E E E E E   Q.   Q.     Q.    Q   E
|-------------|-----------|-------------|
|-------------|-----------|-------------|
|-------------|-----------|-------------|
|---2---------|------5----|-5-----------|
|-----0-1-----|-2---------|-7-----8---7-|
|-0-------1-1-|-0---------|-------8---7-|


   H.          E E E E E E   E E E E E E
|----------||--------------|--------------||
|----------||o-------------|-------------o||
|-10-------||--------------|---5-----6----||
|--8-------||------3-----2-|-3---2-3---2--||
|----------||o---1---1-----|-------------o||
|----------||--0-------1---|--------------||
|
|  H.          E E E E E E   E E E E E E
|----------||--------------|--------------||
|----------||o-------------|-------------o||
|----------||--------------|---5-----6----||
|----------||------3-----2-|-3---2-3---2--||
|--6-------||o---1---1-----|-------------o||
|--6-------||--0-------1---|--------------||


  E E E E E E   E E E E E E   H.             E E E E E E
|-------------|-------------|--------------|--------------|
|-----9-------|---6---------|--------------|--------------|
|---6---6---7-|-6---6-7---6-|--------------|-----3-----2--|
|-5-------5---|---------8---|--------------|---2-----1----|
|-------------|-------------|--------------|-1-----0------|
|-------------|-------------|--------------|--------------|
|
| E E E E E E   E E E E E E   E  E E E E E   E E E E E E
|-------------|-------------|--------------|--------------|
|-------------|-------------|--------------|--------------|
|-------------|---5-----6---|--------------|--------------|
|-----3-----2-|-3---2-3---2-|------2-----3-|-----4-----3--|
|---1---1-----|-------------|----1-----1---|---1-----1----|
|-0-------1---|-------------|-0------1-----|-0-----1------|


    E E E E E E   E E E E E E     E E E E E E   E E E E E E   E E E E E E
||--------------|--------------||-------------|-------------|-------------|
||o-------------|-------------o||-----9-------|---6---------|-------------|
||--------------|---5-----6----||---6---6---7-|-6---6-7---6-|-----6-----6-|
||------3-----2-|-3---2-3---2--||-5-------5---|---------8---|---3-----3---|
||o---1---1-----|-------------o||-------------|-------------|-------1-----|
||--0-------1---|--------------||-------------|-------------|-0-----------|
|
|   E E E E E E   E E E E E E     E E E E E E   E E E E E E   E E E E E E
||--------------|--------------||-------------|-------------|-------------|
||o-------------|-------------o||-------------|-------------|-------------|
||--------------|---5-----6----||-------------|---5-----6---|-------------|
||------3-----2-|-3---2-3---2--||-----3-----2-|-3---2-3---2-|-----2-----3-|
||o---1---1-----|-------------o||---1---1-----|-------------|---1-----1---|
||--0-------1---|--------------||-0-------1---|-------------|-0-----0-----|


  E E E E E E   E E E E  E E   Q.   Q.     Q.    Q   E    Q.   Q.
|-------------|--------------|-----------|-------------|-------------|
|-------------|--------------|-----------|-------------|-------------|
|-----3-----2-|--------------|-----------|-3----11--12-|-10----8-----|
|---2-----1---|------------2-|------2----|-5-----9--10-|--8----4-----|
|-1-----0-----|-0-1-4-0--3---|-2---------|-------------|-------------|
|-------------|--------------|-0---------|-------------|-------------|
|
| E E E E E E   E E E Q.       Q.   Q.     Q.    Q   E    Q.   Q.
|-------------|--------------|-----------|-------------|-------------|
|-------------|--------------|-----------|-------------|-------------|
|-------------|--------------|-----------|-------------|-------------|
|-----4-----3-|-----2--------|------5----|-5-----------|-------4-----|
|---1-----1---|-1-4----------|-2---------|-7-----7---8-|--6----6-----|
|-0-----1-----|--------------|-0---------|-------7---8-|--6----------|


  E E E E E E   Q.   Q.     Q.    Q   E    H.        E E E E E E
|-------------|-----------|-------------|----------|--------------|
|-------------|-----------|-------------|----------|--------------|
|-------------|-----------|-3----12--11-|-10-------|--------------|
|---2---------|------2----|-5----10---9-|--8-------|-----2-----3--|
|-----0-1---1-|-2---------|-------------|----------|---1-----1----|
|-0-------1---|-0---------|-------------|----------|-0-----0------|
|
| E E E E E E   Q.   Q.     Q.    Q   E    H.        E E E E E E
|-------------|-----------|-------------|----------|--------------|
|-------------|-----------|-------------|----------|--------------|
|-------------|-----------|-------------|----------|--------------|
|---2---------|------5----|-5-----------|----------|-----2-----3--|
|-----0-1-----|-2---------|-7-----8---7-|--6-------|---1-----1----|
|-0-------1-1-|-0---------|-------8---7-|--6-------|-0-----0------|


  Q.   Q.     Q.    Q   E    Q.   Q.     E E E E E E   Q.   Q.
|-----------|-------------|------------|-------------|------------|
|-----------|-------------|------------|-------------|------------|
|-----------|-3----11--12-|-10----8----|-------------|------------|
|------2----|-5-----9--10-|--8----4----|---2---------|------2-----|
|-2---------|-------------|------------|-----0-1---1-|-2----------|
|-0---------|-------------|------------|-0-------1---|-0----------|
|
| Q.   Q.     Q.    Q   E    Q.   Q.     E E E E E E   Q.   Q.
|-----------|-------------|------------|-------------|------------|
|-----------|-------------|------------|-------------|------------|
|-----------|-------------|------------|-------------|------------|
|------5----|-5-----------|-------4----|---2---------|------5-----|
|-2---------|-7-----7---8-|--6----6----|-----0-1-----|-2----------|
|-0---------|-------7---8-|--6---------|-0-------1-1-|-0----------|


  Q.    Q   E    H.        E E E Q.     Q.   Q.     Q.    Q   E    Q.   Q.
|-------------|----------|------------|-----------|-------------|------------|
|-------------|----------|------------|-----------|-------------|------------|
|-3----12--11-|-10-------|---6--------|-----------|-3----11--12-|-10----8----|
|-5----10---9-|--8-------|-----5-4----|------2----|-5-----9--10-|--8----4----|
|-------------|----------|------------|-2---------|-------------|------------|
|-------------|----------|-6----------|-0---------|-------------|------------|
|
| Q.    Q   E    H.        E E E Q.     Q.   Q.     Q.    Q   E    Q.   Q.
|-------------|----------|------------|-----------|-------------|------------|
|-------------|----------|------------|-----------|-------------|------------|
|-------------|----------|---3--------|-----------|-------------|------------|
|-5-----------|----------|-----2-1----|------5----|-5-----------|-------4----|
|-7-----8---7-|--6-------|------------|-2---------|-7-----7---8-|--6----6----|
|-------8---7-|--6-------|-0----------|-0---------|-------7---8-|--6---------|


  E E E E E E   Q.   Q.     Q.    Q   E    H.        E E E E E E
|-------------|-----------|-------------|----------|--------------|
|-------------|-----------|-------------|----------|--------------|
|-------------|-----------|-3----12--11-|-10-------|--------------|
|---2---------|------2----|-5----10---9-|--8-------|-----2-----3--|
|-----0-1---1-|-2---------|-------------|----------|---1-----1----|
|-0-------1---|-0---------|-------------|----------|-0-----0------|
|
| E E E E E E   Q.   Q.     Q.    Q   E    H.        E E E E E E
|-------------|-----------|-------------|----------|--------------|
|-------------|-----------|-------------|----------|--------------|
|-------------|-----------|-------------|----------|--------------|
|---2---------|------5----|-5-----------|----------|-----2-----3--|
|-----0-1-----|-2---------|-7-----8---7-|--6-------|---1-----1----|
|-0-------1-1-|-0---------|-------8---7-|--6-------|-0-----0------|


  Q.   Q.     Q.    Q   E    Q.   Q.     E E E E E E   Q.   Q.     Q.    Q   E
|-----------|-------------|------------|-------------|-----------|-------------|
|-----------|-------------|------------|-------------|-----------|-------------|
|-----------|-3----11--12-|-10----8----|-------------|-----------|-3----12--11-|
|------2----|-5-----9--10-|--8----4----|---2---------|------2----|-5----10---9-|
|-2---------|-------------|------------|-----0-1---1-|-2---------|-------------|
|-0---------|-------------|------------|-0-------1---|-0---------|-------------|
|
| Q.   Q.     Q.    Q   E    Q.   Q.     E E E E E E   Q.   Q.     Q.    Q   E
|-----------|-------------|------------|-------------|-----------|-------------|
|-----------|-------------|------------|-------------|-----------|-------------|
|-----------|-------------|------------|-------------|-----------|-------------|
|------5----|-5-----------|-------4----|---2---------|------5----|-5-----------|
|-2---------|-7-----7---8-|--6----6----|-----0-1-----|-2---------|-7-----8---7-|
|-0---------|-------7---8-|--6---------|-0-------1-1-|-0---------|-------8---7-|


   H.          E E E E E E   E E E E E E     E E E E E E   E E E E E E
|----------||--------------|--------------||-------------|--------------|
|----------||o-------------|-------------o||-----9-------|---6----------|
|-10-------||--------------|---5-----6----||---6---6---7-|-6---6-7---6--|
|--8-------||------3-----2-|-3---2-3---2--||-5-------5---|---------8----|
|----------||o---1---1-----|-------------o||-------------|--------------|
|----------||--0-------1---|--------------||-------------|--------------|
|
|  H.          E E E E E E   E E E E E E     E E E E E E   E E E E E E
|----------||--------------|--------------||-------------|--------------|
|----------||o-------------|-------------o||-------------|--------------|
|----------||--------------|---5-----6----||-------------|---5-----6----|
|----------||------3-----2-|-3---2-3---2--||-----3-----2-|-3---2-3---2--|
|--6-------||o---1---1-----|-------------o||---1---1-----|--------------|
|--6-------||--0-------1---|--------------||-0-------1---|--------------|


  H.             E E E E E E     E E E E E E
|--------------|-------------||--------------|
|--------------|-------------||o-------------|
|--------------|-----3-----2-||--------------|
|--------------|---2-----1---||------3-----2-|
|--------------|-1-----0-----||o---1---1-----|
|--------------|-------------||--0-------1---|
|
| E  E E E E E   E E E E E E     E E E E E E
|--------------|-------------||--------------|
|--------------|-------------||o-------------|
|--------------|-------------||--------------|
|------2-----3-|-----4-----3-||------3-----2-|
|----1-----1---|---1-----1---||o---1---1-----|
|-0------1-----|-0-----1-----||--0-------1---|


  E E E E E E     E E E E E E   E E E E E E
|--------------||-------------|-------------|
|-------------o||-----9-------|---6---------|
|---5-----6----||---6---6---7-|-6---6-7---6-|
|-3---2-3---2--||-5-------5---|---------8---|
|-------------o||-------------|-------------|
|--------------||-------------|-------------|
|
| E E E E E E     E E E E E E   E E E E E E
|--------------||-------------|-------------|
|-------------o||-------------|-------------|
|---5-----6----||-------------|---5-----6---|
|-3---2-3---2--||-----3-----2-|-3---2-3---2-|
|-------------o||---1---1-----|-------------|
|--------------||-0-------1---|-------------|


  E E E E E E   E E E E E E   E E E E  E E
|-------------|-------------|--------------|
|-------------|-------------|--------------|
|-----6-----6-|-----3-----2-|--------------|
|---3-----3---|---2-----1---|------------2-|
|-------1-----|-1-----0-----|-0-1-4-0--3---|
|-0-----------|-------------|--------------|
|
| E E E E E E   E E E E E E   E E E Q.
|-------------|-------------|--------------|
|-------------|-------------|--------------|
|-------------|-------------|--------------|
|-----2-----3-|-----4-----3-|-----2--------|
|---1-----1---|---1-----1---|-1-4----------|
|-0-----0-----|-0-----1-----|--------------|


   H     +E   E    Q.    Q.     E E E E E E
|---------------|-------------|-------------|
|---------------|-------------|-------------|
|---------------|-------------|-----3-----2-|
|---------------|-------------|---2-----2---|
|--1-----(1)--1-|--3-----2----|-1-----3-----|
|--1-----(1)--1-|--3-----2----|-------------|
|
|  H     +E   E    Q.    Q.     E E E E E E
|---------------|-------------|-------------|
|---------------|-------------|-------------|
|-10----(10)-10-|-12----11----|-------------|
|--8-----(8)--8-|-10-----9----|-----4-----3-|
|---------------|-------------|---0-----1---|
|---------------|-------------|-0-----0-----|


  E E E E E E   E E E E E E   E E E E E E
|-------------|-------------|-------------|
|-------------|-------------|-------------|
|-------------|-------------|-------------|
|-----2-----3-|-------------|-----2-----3-|
|---0-----1---|-----3-----4-|---0-----1---|
|-0-----0-----|-0-1---0-1---|-0-----0-----|
|
| E E E E E E   E E E E E E   E E E E E E
|-------------|-------------|-------------|
|-------------|-------------|-------------|
|-------------|-------------|-------------|
|-----2-----3-|-------------|-----2-----3-|
|---0-----1---|-----3-----4-|---0-----1---|
|-0-----0-----|-0-1---0-1---|-0-----0-----|


 7/8             6/8                         5/8         6/8
  E E E E E E E   E E E E E E   E E E E E E   E E E E E   Q  Q  Q
|---------------|-------------|-------------|-----------|----------|
|---------------|-------------|-------------|-----------|-7-----6--|
|---6-------5---|-------------|-------------|-----------|-4--x--3--|
|-----7-6-----3-|---2-----3---|-------------|---2-----3-|----x-----|
|-4-------3-----|-----0-----1-|---3-----4---|-----0-1---|----------|
|---------------|-0-----1-----|-0---1-0---1-|-0---------|----------|
|
| E E E E E E E   E E E E E E   E E E E E E   E E E E E   Q  Q  Q
|---------------|-------------|-------------|-----------|----------|
|---------------|-------------|-------------|-----------|----------|
|---3-------2---|-------------|-------------|-----------|----------|
|-----3-2-----3-|---2-----3---|-------------|---2-----3-|----------|
|---------1-----|-----0-----1-|---3-----4---|-----0-1---|-7--8--6--|
|-1-------------|-0-----1-----|-0---1-0---1-|-0---------|-7--8--6--|


                                           7/8             6/8
  E E E E E E   E E E E E E   E E E E E E   E E E E E E E   E E E E E E
|-------------|-------------|-------------|---------------|-------------|
|-------------|-------------|-------------|---------------|-------------|
|-------------|-------------|-------------|---6-------5---|-----6-----6-|
|-----2-----3-|-------------|-----2-----3-|-----7-6-----3-|---3-----3---|
|---0-----1---|-----3-----4-|---1-----1---|-4-------3-----|-------1-----|
|-0-----0-----|-0-1---0-1---|-0-----0-----|---------------|-0-----------|
|
| E E E E E E   E E E E E E   E E E E E E   E E E E E E E   E E E E E E
|-------------|-------------|-------------|---------------|-------------|
|-------------|-------------|-------------|---------------|-------------|
|-------------|-------------|-------------|---3-------2---|-------------|
|-----2-----3-|-------------|-----2-----3-|-----3-2-----3-|-----2-----3-|
|---0-----1---|-----3-----4-|---1-----1---|---------1-----|---1-----1---|
|-0-----0-----|-0-1---0-1---|-0-----0-----|-1-------------|-0-----0-----|


  H.        +Q   E Q.     +H     +E   E    Q.   Q.
|---------|-------------|---------------|-------------|
|---------|-------------|---------------|-------------|
|-3-------|-(3)----3----|-(3)----(3)-12-|-11----------|
|-2-------|-(2)--5-5----|-(5)----(5)-10-|--9----------|
|-1-------|-(1)--7------|---------------|-------------|
|---------|-------------|---------------|-------------|
|
| H.        +Q   E Q.     +H     +E   E    Q.   Q.
|---------|-------------|---------------|-------------|
|---------|-------------|---------------|-------------|
|---------|-------------|---------------|-------------|
|---------|--------5----|-(5)----(5)--5-|--4----------|
|---------|--------7----|-(7)----(7)--3-|--2----------|
|-0-------|-(0)--0------|---------------|-------------|


               5/8         6/8                      3/8
  E E E E E E   E E E E E   Q  Q  Q    E E E E E E   Q  E
|-------------|-----------|----------|-------------|------|
|-------------|-----------|-7-----6--|-------------|-7--8-|
|-------------|-----------|-4--x--3--|-------------|-4--5-|
|-------------|-----2---3-|----x-----|-----2-----3-|------|
|-----3-----4-|---0---1---|----------|---0-----1---|------|
|-0-1---0-1---|-0---------|----------|-0-----0-----|------|
|
| E E E E E E   E E E E E   Q  Q  Q    E E E E E E   Q  E
|-------------|-----------|----------|-------------|------|
|-------------|-----------|----------|-------------|------|
|-------------|-----------|----------|-------------|------|
|-------------|-----2---3-|----------|-----2-----3-|------|
|-----3-----4-|---0---1---|-7--8--6--|---0-----1---|-7--8-|
|-0-1---0-1---|-0---------|-7--8--6--|-0-----0-----|-7--8-|


 6/8
  E E E E E E   E E E E E E   E E E E E E   E E E E E E   Q  Q  Q
|-------------|-------------|-------------|-------------|----------|
|-------------|-------------|-------------|-------------|-7-----6--|
|-----3-----2-|-------------|-------------|-------------|-4--x--3--|
|---2-----2---|-----2-----3-|-------------|-----2-----3-|----x-----|
|-1-----3-----|---0-----1---|-----3-----4-|---0-----1---|----------|
|-------------|-0-----0-----|-0-1---0-1---|-0-----0-----|----------|
|
| E E E E E E   E E E E E E   E E E E E E   E E E E E E   Q  Q  Q
|-------------|-------------|-------------|-------------|----------|
|-------------|-------------|-------------|-------------|----------|
|-------------|-------------|-------------|-------------|----------|
|-----4-----3-|-----2-----3-|-------------|-----2-----3-|----------|
|---0-----1---|---0-----1---|-----3-----4-|---0-----1---|-7--8--6--|
|-0-----0-----|-0-----0-----|-0-1---0-1---|-0-----0-----|-7--8--6--|


               3/8    6/8           7/8
  E E E E E E   Q  E   E E E E E E   E E E E E E E
|-------------|------|-------------|---------------|
|-------------|-7--8-|-------------|-------5---6---|
|-------------|-4--5-|-----3-----2-|-0-6-0---0---0-|
|-----2-----3-|------|---2-----2---|---------------|
|---0-----1---|------|-1-----3-----|---------------|
|-0-----0-----|------|-------------|---------------|
|
| E E E E E E   Q  E   E E E E E E   E E E E E E E
|-------------|------|-------------|---------------|
|-------------|------|-------------|---------------|
|-------------|------|-------------|---3---4---5---|
|-----2-----3-|------|-----4-----3-|-2---2---2---2-|
|---0-----1---|-7--8-|---0-----1---|---------------|
|-0-----0-----|-7--8-|-0-----0-----|---------------|


 6/8
  E E E E E E   E E E E E E   E E E E E E   Q  Q  Q
|-------------|-------------|-------------|----------|
|-------------|-------------|-------------|-7-----6--|
|-------------|-------------|-------------|-4--x--3--|
|-----2-----3-|-------------|-----2-----3-|----x-----|
|---0-----1---|-----3-----4-|---0-----1---|----------|
|-0-----0-----|-0-1---0-1---|-0-----0-----|----------|
|
| E E E E E E   E E E E E E   E E E E E E   Q  Q  Q
|-------------|-------------|-------------|----------|
|-------------|-------------|-------------|----------|
|-------------|-------------|-------------|----------|
|-----2-----3-|-------------|-----2-----3-|----------|
|---0-----1---|-----3-----4-|---0-----1---|-7--8--6--|
|-0-----0-----|-0-1---0-1---|-0-----0-----|-7--8--6--|


               3/8    6/8
  E E E E E E   Q  E   E E E E E E   E E E E E E   E E E E E E
|-------------|------|-------------|-------------|-------------|
|-------------|-7--8-|-------------|-------------|-------------|
|-------------|-4--5-|-----3-----2-|-------------|-------------|
|-----2-----3-|------|---2-----2---|-----2-----3-|-----2-----2-|
|---0-----1---|------|-1-----3-----|---1-----1---|-1-4-----1---|
|-0-----0-----|------|-------------|-0-----0-----|-------0-----|
|
| E E E E E E   Q  E   E E E E E E   E E E E E E   E E E E E E
|-------------|------|-------------|-------------|-------------|
|-------------|------|-------------|-------------|-------------|
|-------------|------|-------------|-------------|-------------|
|-----2-----3-|------|-----4-----3-|-----2-----3-|-----------2-|
|---0-----1---|-7--8-|---0-----1---|---1-----1---|---1-4---1---|
|-0-----0-----|-7--8-|-0-----0-----|-0-----0-----|-0-----0-----|


                             9/8                 6/8
  E E E E E E   E E E E E E   E E E E E E E E E   H.
|-------------|-------------|-------------3-6-3-|-------|
|-------------|-------------|-------------------|-------|
|-------------|-------------|-------------------|-3-----|
|-----3-----2-|-----2-------|-----7-5---5-------|-2-----|
|---1---1-4---|---1-----1---|-4-7-----4---------|-1-----|
|-0-----------|-0-----0---1-|-------------------|-------|
|
| E E E E E E   E E E E E E   E E E E E E E E E   H.
|-------------|-------------|-------------------|-------|
|-------------|-------------|-------------------|-------|
|-------------|-------------|-------------------|-------|
|-----3-------|-----2-------|-------------------|-------|
|---1-----1-4-|---1-----1---|---1-------1-------|-------|
|-0-----0-----|-0-----0---1-|-0---0-0-1---3-6-3-|-0-----|


  +Q   E Q.     +H     +E   E    Q.   Q.
|-------------|---------------|------------|
|-------------|---------------|------------|
|-(3)----3----|-(3)----(3)-12-|-11---------|
|-(2)--5-5----|-(5)----(5)-10-|--9---------|
|-(1)--7------|---------------|------------|
|-------------|---------------|------------|
|
| +Q   E Q.     +H     +E   E    Q.   Q.
|-------------|---------------|------------|
|-------------|---------------|------------|
|-------------|---------------|------------|
|--------5----|-(5)----(5)--5-|--4---------|
|--------7----|-(7)----(7)--3-|--2---------|
|-(0)--0------|---------------|------------|


  E E E E E E   E E E E E E   E E E E E E   E E E E E E   E E E E E E
|-------------|-------------|-------------|-----------9-|--------------|
|-------------|-------------|-------------|---------8---|--------------|
|-------------|-------------|-------------|-------6-----|--------------|
|-------3-----|-------2-----|-------3-----|-------------|-2-----3------|
|---1-----1---|---1-----1---|---1-----1---|---1---------|---1-----1----|
|-0---0-----3-|-0---0-----1-|-0---0-----3-|-0---0-------|-----0-----3--|
|
| E E E E E E   E E E E E E   E E E E E E   E E E E E E   E E E E E E
|-------------|-------------|-------------|-------------|--------------|
|-------------|-------------|-------------|-----------5-|--------------|
|-------------|-------------|-------------|-------------|--------------|
|-------3-----|-------2-----|-------3-----|-------2h5---|-------3------|
|---1-----1---|---1-----1---|---1-----1---|---1---------|---1-----1----|
|-0---0-----3-|-0---0-----1-|-0---0-----3-|-0---0-------|-0---0-----3--|


  E E E E E E   E E E E E E   E E E E E E   Q.   Q  E   Q.     E  E E
|-------------|-------------|-------------|-----------|----------------|
|-------------|---6---6---7-|---6---------|-----------|----------------|
|-------------|-------------|-------------|---------3-|----------------|
|-2-----5---6-|-----3---3---|-3---3-------|---------2-|-----------2-3--|
|---1---------|-------------|-------4-4-4-|-4----1--1-|--------1-------|
|-----1---1---|-1-----------|-------0-0-0-|-0----0----|----------------|
|
| E E E E E E   E E E E E E   E E E E E E   Q.   Q  E   E  E E Q.
|-------------|-------------|-------------|-----------|----------------|
|-------------|-------------|-------------|-----------|----------------|
|-------------|-------------|-------------|-----------|----------------|
|-------2-----|---3---3---4-|---3---------|-----------|------2---------|
|---1-----1---|-------------|-------4-4-4-|-4----1----|----1-----------|
|-0---1-----1-|-1---1---1---|-1---1-0-0-0-|-0----0--0-|-0--------------|


      E  E E   E  E E     E  E E   E  E E
||--------------------|-------------------|
||o-------------------|-------------------|
||--------------------|-------------------|
||--------------------|-------------------|
||o-[10]-----[10]-----|-[10]-----[10]-----|
||-------0-0------0-0-|------0-0------0-0-|
|
|     E  E E   E  E E     E  E E   E  E E
||--------------------|-------------------|
||o-------------------|-------------------|
||--------------------|-------------------|
||--------------------|-------------------|
||o-[10]-----[10]-----|-[10]-----[10]-----|
||-------0-0------0-0-|------0-0------0-0-|


  E E E   E  E E   E E E E E E    Q   E   E  E E
|----------------|-------------|-----------------|
|----------------|-------------|-----------------|
|---6------------|-------------|-----------------|
|-5--------------|-------------|-----------------|
|-------[10]-----|-------------|-[7]----[10]-----|
|-----0------0-0-|-0h1h2h5p2p1-|------0------0-0-|
|
| E E E   E  E E   E E E E E E    Q   E   E  E E
|----------------|-------------|-----------------|
|----------------|-------------|-----------------|
|----------------|-------------|-----------------|
|---8------------|-------------|-----------------|
|-7-----[10]-----|-------------|--------[10]-----|
|-----0------0-0-|-0h1h2h5p2p1-|--0---0------0-0-|


    E  E E   E  E E   Q  E   E  E E   E E E E E E
|-------------------|---------------|--------------||
|-------------------|---------------|-------------o||
|-------------------|---------------|--------------||
|-------------------|---------------|--------------||
|-[10]-----[10]-----|-4--4-[10]---0h|=1p0h4p1p0h1-o||
|------0-0------0-0-|-----------0---|--------------||
|
|   E  E E   E  E E   Q  E   E  E E   E E E E E E
|-------------------|---------------|--------------||
|-------------------|---------------|-------------o||
|-------------------|---------------|--------------||
|-------------------|---------------|--------------||
|-[10]-----[10]-----|-1--1-[10]-----|-------------o||
|------0-0------0-0-|-----------0-0h|=1p0h5p2p1h2--||


   Q.     E  E E     E  E E   E  E E
|----------------|-------------------|
|----------------|-------------------|
|----------------|-------------------|
|----------------|-------------------|
|--3----[10]-----|-[10]-----[10]-----|
|--1---------0-0-|------0-0------0-5-|
|
|  Q.     E  E E     E  E E   E  E E
|----------------|-------------------|
|----------------|-------------------|
|----------------|-------------------|
|-10-------------|-------------------|
|--8----[10]-----|-[10]-----[10]-----|
|------------0-0-|------0-0------0-5-|


  Q.     E  E E     E  E E E E E   Q.     E  E E
|---------------|----------------|----------------|
|---------------|----------------|----------------|
|---------------|----------------|----------------|
|---------------|----------------|----------------|
|-4----[10]-----|-[10]-----------|-3----[10]------|
|-2---------0-0-|------0-5-2-1-2-|-1---------0-0--|
|
| Q.     E  E E     E  E E E E E   Q.     E  E E
|---------------|----------------|----------------|
|---------------|----------------|----------------|
|---------------|----------------|----------------|
|---------------|----------------|----------------|
|-4----[10]-----|-[10]-----------|-3----[10]------|
|-2---------0-0-|------0-5-2-1-2-|-1---------0-0--|


    E  E E   E  E E   Q.   E E E   E E E Q  E
|-------------------|------------|------------|
|-------------------|------------|------------|
|-------------------|------------|-------1----|
|-------------------|------------|-----2------|
|-[10]-----[10]---7-|-4------1-0-|-1-4--------|
|------0-0------0---|------0-----|------------|
|
|   E  E E   E  E E   Q.   E E E   E E E Q  E
|-------------------|------------|------------|
|-------------------|------------|------------|
|-------------------|------------|------------|
|-------------------|------------|-------3----|
|-[10]-----[10]---3-|-1----------|-----4------|
|------0-0------0---|------0-1-0-|-1-4--------|


      E  E E   E  E E     E  E E   E  E E   E E E   E  E E   E E E E E E
||--------------------|-------------------|----------------|-------------|
||o-------------------|-------------------|----------------|-------------|
||--------------------|-------------------|---6------------|-------------|
||--------------------|-------------------|-5--------------|-------------|
||o-[10]-----[10]-----|-[10]-----[10]-----|-------[10]-----|-------------|
||-------0-0------0-0-|------0-0------0-0-|-----0------0-0-|-0h1h2h5p2p1-|
|
|     E  E E   E  E E     E  E E   E  E E   E E E   E  E E   E E E E E E
||--------------------|-------------------|----------------|-------------|
||o-------------------|-------------------|----------------|-------------|
||--------------------|-------------------|----------------|-------------|
||--------------------|-------------------|---8------------|-------------|
||o-[10]-----[10]-----|-[10]-----[10]-----|-7-----[10]-----|-------------|
||-------0-0------0-0-|------0-0------0-0-|-----0------0-0-|-0h1h2h5p2p1-|


   Q   E   E  E E     E  E E   E  E E   Q  E   E  E E   E E E E E E
|-----------------|-------------------|---------------|---------------||
|-----------------|-------------------|---------------|--------------o||
|-----------------|-------------------|---------------|---------------||
|-----------------|-------------------|---------------|---------------||
|-[7]----[10]-----|-[10]-----[10]-----|-4--4-[10]---0h|=1p0h4p1p0h1--o||
|------0------0-0-|------0-0------0-0-|-----------0---|---------------||
|
|  Q   E   E  E E     E  E E   E  E E   Q  E   E  E E   E E E E E E
|-----------------|-------------------|---------------|---------------||
|-----------------|-------------------|---------------|--------------o||
|-----------------|-------------------|---------------|---------------||
|-----------------|-------------------|---------------|---------------||
|--------[10]-----|-[10]-----[10]-----|-1--1-[10]-----|--------------o||
|--0---0------0-0-|------0-0------0-0-|-----------0-0h|=1p0h5p2p1h2---||


   Q.     E  E E     E  E E   E  E E
|----------------|-------------------|
|----------------|-------------------|
|----------------|-------------------|
|----------------|-------------------|
|--3----[10]-----|-[10]-----[10]-----|
|--1---------0-0-|------0-0------0-5-|
|
|  Q.     E  E E     E  E E   E  E E
|----------------|-------------------|
|----------------|-------------------|
|----------------|-------------------|
|-10-------------|-------------------|
|--8----[10]-----|-[10]-----[10]-----|
|------------0-0-|------0-0------0-5-|


  Q.     E  E E     E  E E E E E   Q.     E  E E
|---------------|----------------|----------------|
|---------------|----------------|----------------|
|---------------|----------------|----------------|
|---------------|----------------|----------------|
|-4----[10]-----|-[10]-----------|-3----[10]------|
|-2---------0-0-|------0-5-2-1-2-|-1---------0-0--|
|
| Q.     E  E E     E  E E E E E   Q.     E  E E
|---------------|----------------|----------------|
|---------------|----------------|----------------|
|---------------|----------------|----------------|
|---------------|----------------|----------------|
|-4----[10]-----|-[10]-----------|-3----[10]------|
|-2---------0-0-|------0-5-2-1-2-|-1---------0-0--|


                                                             3/8
    E  E E   E  E E   Q.   E E E   E E E E E E   E E E Q.     Q.
|-------------------|------------|-------------|------------|------|
|-------------------|------------|-------------|------------|------|
|-------------------|------------|-------1-----|------------|------|
|-------------------|------------|-----2-------|-2-----4----|------|
|-[10]-----[10]---7-|-4------1-0-|-1-4-----1---|---0--------|------|
|------0-0------0---|------0-----|-----------0-|-----0------|------|
|
|   E  E E   E  E E   Q.   E E E   E E E E E E   E E E Q.     Q.
|-------------------|------------|-------------|------------|------|
|-------------------|------------|-------------|------------|------|
|-------------------|------------|-------------|------------|------|
|-------------------|------------|-------3-----|-2-----4----|------|
|-[10]-----[10]---3-|-1----------|-----4---1---|---0--------|------|
|------0-0------0---|------0-1-0-|-1-4-------0-|-----0------|------|


 6/8
  E E E E E E   E E E E E E   E E E E E E
|-------------|-------------|-------------|
|-------------|-------------|-6-----5-----|
|-------------|-------------|-----4-------|
|-3-----2-----|-4-----3-----|---3-----2-3-|
|-----1---0---|-----1-----1-|-------------|
|---0-------0-|---0-----0---|-------------|
|
| E E E E E E   E E E E E E   E E E E E E
|-------------|-------------|-------------|
|-------------|-------------|-------------|
|-------------|-------------|-------------|
|-3-----2-----|-4-----3-----|-3-----2-----|
|-----1---0---|-----1-----1-|-----1-------|
|---0-------0-|---0-----0---|---1-----0-1-|


    E  E E   E  E E     E  E E   E  E E
|-------------------|-------------------|
|-------------------|-------------------|
|-------------------|-------------------|
|-------------------|---------------2-3-|
|-[10]-----[10]-----|-[10]-----[10]-----|
|------0-0------0-0-|------0-0----------|
|
|   E  E E   E  E E     E  E E   E  E E
|-------------------|-------------------|
|-------------------|-------------------|
|-------------------|-------------------|
|-------------------|-------------------|
|-[10]-----[10]-----|-[10]-----[10]-----|
|------0-0------0-0-|------0-0------0-1-|


 6/8
  E E E E E E   E E E   E  E E     E  E E E E E   Q.   Q.     H.
|-------------|-2--------------|----------------|-----------|-------|
|-6-----5-----|----------------|----------6-----|-5---------|-5-----|
|-------------|----------------|--------------4-|-----------|-3-----|
|---2-3---2-3-|---2-3----------|------------3---|-----------|-2-----|
|-------------|-------[10]-----|-[10]-----------|-----------|-------|
|-------------|------------0-0-|------0-0-------|-----------|-------|
|
| E E E E E E   E E E   E  E E     E  E E E E E   Q.   Q.     H.
|-------------|----------------|----------------|-----------|-------|
|-------------|----------------|----------------|-----------|-------|
|-------------|----------------|----------------|-----------|-3-----|
|-3-----2-----|-4--------------|----------3-----|-2---------|-2-----|
|-----1-----0-|-----1-[10]-----|-[10]---------1-|-----------|-1-----|
|---0-----0---|---0--------0-0-|------0-0---1---|-----------|-------|


  +Q   E E E E   Q.   Q.     E E E E E E   E E E E E E   E E E E E E
|--------------|-----------|-------------|-------------|--------------|
|-(5)----------|-----------|-------------|-------------|--------------|
|-(3)----------|-----------|-------------|-------------|--------------|
|-(2)----------|-----------|-3-----2-----|-4-----3-----|-3-----2-2-3--|
|--------------|-1---------|-----1---0---|-----1-----1-|---1----------|
|------0-1-0-3-|-----------|---0-------0-|---0-----0---|-----1--------|
|
| +Q   E E E E   Q.   Q.     E E E E E E   E E E E E E   E E E E E E
|--------------|-----------|-------------|-------------|--------------|
|--------------|-----------|-------------|-------------|--------------|
|-(3)----------|-----------|-------------|-------------|--------------|
|-(2)----------|-----------|-3-----2-----|-4-----3-----|-3-----2------|
|-(1)----------|-----------|-----1---0---|-----1-----1-|-----1--------|
|------0-1-0-1-|-2---------|---0-------0-|---0-----0---|---1-----0-1--|


    E  E E   E  E E     E  E E   E  E E   H.
|-------------------|-------------------|---------|
|-------------------|-------------------|---------|
|-------------------|-------------------|-9-------|
|-------------------|-------------------|---------|
|-[10]-----[10]-----|-[10]-----[10]-----|-7-------|
|------0-0------0-0-|------0-0------0-1-|---------|
|
|   E  E E   E  E E     E  E E   E  E E   H.
|-------------------|-------------------|---------|
|-------------------|-------------------|---------|
|-------------------|-------------------|-9-------|
|-------------------|-------------------|---------|
|-[10]-----[10]-----|-[10]-----[10]-----|-7-------|
|------0-0------0-0-|------0-0------0-1-|---------|


   Q.   Q.      E  E E  E  E E     Q   E E E E
|------------|-----------------|---------------|
|------------|-----------------|---------------|
|-10----6----|-----------------|---------------|
|------------|-----------------|-[10]----------|
|--8----4----|-<7>-----<7>-----|---------------|
|------------|-----0-0-----0-0-|-------3-1-0-1-|
|
|  Q.   Q.      E  E E  E  E E     Q   E E E E
|------------|-----------------|---------------|
|------------|-----------------|---------------|
|-10----6----|-----------------|---------------|
|------------|-----------------|-[10]----------|
|--8----4----|-<7>-----<7>-----|---------------|
|------------|-----0-0-----0-0-|-------3-1-0-1-|


  H.        Q.   Q.     E E E E E E   E E E   E  E E     E  E E   E  E E
|---------|-----------|-------------|-2--------------|--------------------|
|---------|-----------|-6-----5-----|----------------|--------------------|
|---------|-----------|-------------|----------------|--------------------|
|---------|-----------|---2-3---2-3-|---2-3----------|--------------------|
|-2-------|-3----4----|-------------|-------[10]-----|-[10]-----[10]------|
|-0-------|-1----0----|-------------|------------0-0-|------0-0------0-0--|
|
| H.        Q.   Q.     E E E E E E   E E E   E  E E     E  E E   E  E E
|---------|-----------|-------------|----------------|--------------------|
|---------|-----------|-------------|----------------|--------------------|
|---------|-----------|-------------|----------------|--------------------|
|---------|-----------|-3-----2-----|-4--------------|--------------------|
|-2-------|-3----4----|-----1-----0-|-----1-[10]-----|-[10]-----[10]------|
|-0-------|-1----0----|---0-----0---|---0--------0-0-|------0-0------0-0--|


    E  E E Q.     +Q.    Q.     Q.    E  E E    E  E E   Q   E   E E E Q.
|---------------|-------------|--------------|-----------------|-------------|
|---------------|-------------|--------------|-----------------|-------------|
|----------9----|-(9)---10----|-6------------|-----------------|-------------|
|---------------|-------------|--------------|---------[10]----|-------------|
|-[10]-----7----|-(7)----8----|-4----<7>-----|-<7>-------------|-------2-----|
|------0-0------|-------------|----------0-0-|-----0-0-------3-|-1-0-1-0-----|
|
|   E  E E Q.     +Q.    Q.     Q.    E  E E    E  E E   Q   E   E E E Q.
|---------------|-------------|--------------|-----------------|-------------|
|---------------|-------------|--------------|-----------------|-------------|
|----------9----|-(9)---10----|-6------------|-----------------|-------------|
|---------------|-------------|--------------|---------[10]----|-------------|
|-[10]-----7----|-(7)----8----|-4----<7>-----|-<7>-------------|-------2-----|
|------0-0------|-------------|----------0-0-|-----0-0-------3-|-1-0-1-0-----|


              9/8                6/8
  +Q.   Q.     Q.   E E E E E E   Q.   Q.
|------------|------------------|---------|
|------------|------6-----5-----|-7-------|
|------------|------------------|---------|
|------------|--------2-3---2-3-|---------|
|-(2)---3----|-4----------------|---------|
|-(0)---1----|-0----------------|---------|
|
| +Q.   Q.     Q.   E E E E E E   Q.   Q.
|------------|------------------|---------|
|------------|------------------|---------|
|------------|------------------|---------|
|------------|------3-----2-----|-4-------|
|-(2)---3----|-4--------1-----0-|---------|
|-(0)---1----|-0------0-----0---|---------|


  E E E E E E   E E E E E E   E E E E E E   E E E E E E   E E E E E E
|-------------|-------------|-------------|-------------|--------------|
|-------------|-------------|-------------|-------------|--------------|
|-------------|-------------|-------------|-------------|--------------|
|-------------|-------------|-------------|-------3---2-|--------------|
|-----3-------|-----3-------|-----4-------|-------------|-----3--------|
|-0-1---1-0-1-|-0-1---1-0-1-|-0-1---1-0-1-|-0-1-0---1---|-0-1---1-0-1--|
|
| E E E E E E   E E E E E E   E E E E E E   E E E E E E   E E E E E E
|-------------|-------------|-------------|-------------|--------------|
|-------------|-------------|-------------|-------------|--------------|
|-------------|-------------|-------------|-------------|--------------|
|-------------|-------------|-------------|-----2-3---2-|--------------|
|-----3-------|-----3-------|-----4-------|---1---------|-----3--------|
|-0-1---1-0-1-|-0-1---1-0-1-|-0-1---1-0-4-|-0-------1---|-0-1---1-0-1--|


  E E E E E E   E E E E E E   E E E E E E
|-------------|-------------|-------------|
|-------------|-------------|-------------|
|-------------|-------------|-------------|
|-------------|-2-----3-----|-2-----5---6-|
|-----4-------|---1-----1---|---1---------|
|-0-1---1-0-1-|-----0-----3-|-----1---1---|
|
| E E E E E E   E E E E E E   E E E E E E
|-------------|-------------|-------------|
|-------------|-------------|-------------|
|-------------|-------------|-------------|
|-------------|-------3-----|-------2-----|
|-----4-------|---1-----1---|---1-----1---|
|-0-1---1-0-1-|-0---0-----3-|-0---1-----1-|


  E E E E E E   E E E E E E   Q.   Q  E   H.
|-------------|-------------|-----------|---------------|
|---6---6---7-|---6---------|-----------|---------------|
|-------------|-------------|---------3-|---------------|
|-----3---3---|-3---3-------|-----------|---------------|
|-------------|-------4-4-4-|-4----1----|---------------|
|-1-----------|-------0-0-0-|-0----0----|---------------|
|
| E E E E E E   E E E E E E   Q.   Q  E   E  E E E E E
|-------------|-------------|-----------|---------------|
|-------------|-------------|-----------|---------------|
|-------------|-------------|-----------|---------------|
|---3---3---4-|---3---------|-----------|------2-----4--|
|-------------|-------4-4-4-|-4----1----|----1-----2----|
|-1---1---1---|-1---1-0-0-0-|-0----0--0-|-0------2------|


    E  E E   E  E E     E  E E   E  E E
|-------------------|-------------------|
|-------------------|-------------------|
|-------------------|-------------------|
|-------------------|-------------------|
|-[10]-----[10]-----|-[10]-----[10]-----|
|------0-0------0-0-|------0-0------0-0-|
|
|   E  E E   E  E E     E  E E   E  E E
|-------------------|-------------------|
|-------------------|-------------------|
|-------------------|-------------------|
|-------------------|-------------------|
|-[10]-----[10]-----|-[10]-----[10]-----|
|------0-0------0-0-|------0-0------0-0-|


    E  E E   E  E E     E  E E   E  E E
|-------------------|--------------------|
|-------------------|--------------------|
|-------------------|--------------------|
|-------------------|--------------------|
|-[10]-----[10]-----|-[10]-----[10]------|
|------0-0------0-0-|------0-0------0-0--|
|
|   E  E E   E  E E     E  E E   E  E E
|-------------------|--------------------|
|-------------------|--------------------|
|-------------------|--------------------|
|-------------------|--------------------|
|-[10]-----[10]-----|-[10]-----[10]------|
|------0-0------0-0-|------0-0------0-0--|


  E E E  E  E E    E  E E E E E   E E E Q.
|---------------|---------------|------------*|
|---------------|---------------|------------*|
|---6-----------|---------------|------------*|
|-5-----[7]-----|-[7]-----------|------------*|
|---------------|-------0h1p0h4p|=1p0h1------*|
|-----0-----0-0-|-----0---------|------------*|
|
| E E E  E  E E    E  E E E E E   E E E Q.
|---------------|---------------|------------*|
|---------------|---------------|------------*|
|---------------|---------------|------------*|
|---8---[7]-----|-[7]-----------|------------*|
|-7-------------|---------------|------------*|
|-----0-----0-0-|-----0-0h1p0h5p|=2p1h2------*|




 Mutilate the Stillborn-----------------------------------------------------------

5/4
  Gtr I
   PM-----|     PM----|                    PM--------|
   S S  S S  Q  S S S S E E E E   E E S  S S S  E  E  E  E Q
|-----------------------6-9-6---|-----------------------------|
|---------------------8-------8-|-----------------------------|
|-------------------8-----------|-6---------------------------|
|-----------14--5---------------|---8-----------------8--9----|
|-----------------5-------------|-----7-10---------7----------|
|-12-0-12-0---------------------|----------0-0--7-------------|
|
| Gtr II
|  PM-----|     PM----|                    PM--------|
|  S S  S S  Q  S S S S E E E E   E E S  S S S  E  E  E  E Q
|-----------------------3-6-3---|-----------------------------|
|---------------------5-------5-|-----------------------------|
|-------------------5-----------|-3-0-------------------12----|
|-----------14------------------|--------2-----------11-------|
|---------------7---------------|-----4-----------10----------|
|--0-0--0-0-------4-------------|----------0-0-10-------------|


    $$
   6/8
     PM----------|
     S S  S S  S S  S  S  S  S  S  S  3x
||------------------------------------||
||o----------------------------------o||
||------------------------------------||
||------------------------------8-11--||
||o-----------------------7-10-------o||
||--12-0-12-0-12-0--6--9--------------||
|
|    PM----------|
|    S S  S S  S S  S  S  S  S  S  S  3x
||------------------------------------||
||o----------------------------------o||
||-----------------------------12-15--||
||-----------------------11-14--------||
||o----------------10-13-------------o||
||---0-0--0-0--0-0--------------------||


   PM-----|     PM------|             PM----------|
   S S  S S  E  S  S  S  S  S  S      S S  S S  S S  S  S  S  S  S  S   3x
|--------------------------------||-------------------------------------||
|--------------------------11-14-||o-----------------------------------o||
|-----------------------12-------||-------------------------------------||
|-----------14-------13----------||------------------------------8-11---||
|--------------10----------------||o-----------------------7-10--------o||
|-12-0-12-0-------10-------------||--12-0-12-0-12-0--6--9---------------||
|
|  PM-----|     PM------|             PM----------|
|  S S  S S  E  S  S  S  S  S  S      S S  S S  S S  S  S  S  S  S  S   3x
|---------------------------3--6-||-------------------------------------||
|------------5-----------5-------||o-----------------------------------o||
|---------------------5----------||-----------------------------12-15---||
|--------------------------------||-----------------------11-14---------||
|---------------7----------------||o----------------10-13--------------o||
|--0-0--0-0--------4-------------||---0-0--0-0--0-0---------------------||


     PM-----|     PM------|
     S S  S S  E  S  S  S  S  S  S  5x
||----------------------------------||
||o--------------------------11-14-o||
||------------------------12--------||
||------------14-------13-----------||
||o--------------10----------------o||
||--12-0-12-0-------10--------------||
|
|    PM-----|     PM------|
|    S S  S S  E  S  S  S  S  S  S  5x
||----------------------------3--6--||
||o------------5-----------5-------o||
||----------------------5-----------||
||----------------------------------||
||o---------------7----------------o||
||---0-0--0-0--------4--------------||


                                                      To Dbl. Coda
                                   4/4
   PM-----|     PM------|            PM-----|
   S S  S S  E  S  S  S  S  S  S     S S  S S E  S  S  S  S S S Q
|--------------------------------||---------------------------------|
|--------------------------11-14-||---------------------------------|
|-----------------------12-------||-----------9---------------------|
|-----------14-------13----------||--------------8-11--8------------|
|--------------10----------------||----------------------10---------|
|-12-0-12-0-------10-------------||-12-0-12-0---------------9-------|
|
|  PM-----|     PM------|      T     PM-----|
|  S S  S S  E  S  S  S  S  S  S     S S  S S E  S  S  S  S S S Q
|------------------------4--9h12-||---------------------------------|
|---------------------7----------||-------------11--8-11------------|
|------------9-------------------||-----------9-----------9---------|
|---------------8----------------||-------------------------8-------|
|--------------------------------||---------------------------------|
|--0-0--0-0--------3-------------||--0-0--0-0-----------------------|


 Guitar Break [00:18:65]
  N.C.
 5/4
   S  S  S  S  S  S  S  S  S  S  S  S  S  S  S  S  S  S  S  S
|-------------12-15-12----------------------------------------|
|-11-12-14-15----------15-14-12-11----------------------------|
|----------------------------------12-11-------------12-11----|
|----------------------------------------14-12-11----------14-|
|-------------------------------------------------14----------|
|-------------------------------------------------------------|
|
|  S  S  S  S  S  S  S  S  S  S  S  S  S  S  S  S  S  S  S  S
|----------14-15-18-15-14-------------------------------------|
|-14-15-17----------------17-15-------------------------------|
|-------------------------------18-16-15-------------16-15----|
|----------------------------------------17-16-14----------17-|
|-------------------------------------------------17----------|
|-------------------------------------------------------------|


               PM
   S  S  S  S  S  S  S  S  S  S  S  S  S  S  E Q
|-------------------------14-17-14-----------------|
|----------------------15----------15--------------|
|-------------------16----------------16-----------|
|-12-11----------16----------------------16--------|
|-------14-13-14----------------------------17-----|
|--------------------------------------------------|
|
|              PM
|  S  S  S  S  S  S  S  S  S  S  S  S  S  S  E Q
|-------------------------10-14-10-----------------|
|----------------------12----------12--------------|
|-------------------11----------------11-----------|
|-16-14-------16-12----------------------12--------|
|-------17-16-------------------------------14-----|
|--------------------------------------------------|


   Pre-V. & Verse [0:21:65]
    $
    N.C.
   4/4
    PM|   PM--------------------|   PM---------
    E E E E S S S S S S S S   E E E E E E E E
||--------------------------|-----------------|
||o-------------------------|-----------------|
||--------------------------|-----------------|
||--------------------------|-----------------|
||o---3-1-------------------|---3-1-----1-3-4-|
||--2-----0-0-0-0-0-0-0-0-0-|-2-----0-2-------|
|
|   PM|   PM--------------------|   PM---------
|   E E E E S S S S S S S S   E E E E E E E E
||--------------------------|-----------------|
||o-------------------------|-----------------|
||--------------------------|-----------------|
||--------------------------|-----------------|
||o---3-1-------------------|---3-1-----1-3-4-|
||--2-----0-0-0-0-0-0-0-0-0-|-2-----0-2-------|


                            6/8
 ---|   PM--------------|
  E E E E S S S S S S S S    E E  E E  E E
|-------------------------||----------------|
|-------------------------||-5--------------|
|-------------------------||---6----6-------|
|-2-----------------------||------8----8-5--|
|-----4-------------------||----------------|
|---0---0-6-6-6-6-6-6-6-6-||----------------|
|
|---|   PM--------------|
| E E E E S S S S S S S S    E E  E E  E E
|-------------------------||----------------|
|-------------------------||-8--------------|
|-------------------------||---9----9-------|
|-5-------8-8-8-8-8-8-8-8-||-----11---11-8--|
|-----7-------------------||----------------|
|---0---0-----------------||----------------|


 4/4
  PM|   PM--------------------|   PM----------
  E E E E S S S S S S S S   E E E E E E E E
|-------------------------|-----------------||
|-------------------------|-----------------||
|-------------------------|-----------------||
|-5-----------------------|-----------------||
|---4-1-------------------|---3-1-----1-3-4-||
|-------0-0-0-0-0-0-0-0-0-|-2-----0-2-------||
|
| PM|   PM--------------------|   PM----------
| E E E E S S S S S S S S   E E E E E E E E
|-------------------------|-----------------||
|-------------------------|-----------------||
|-------------------------|-----------------||
|-5-----------------------|-----------------||
|---4-1-------------------|---3-1-----1-3-4-||
|-------0-0-0-0-0-0-0-0-0-|-2-----0-2-------||


 1.
 6/4
 ---|   PM------|
  E E E E S S S S Q  S  S  S S E  E
|------------------------------6--9--||
|-----------------5----------8------o||
|------------------------------------||
|-2------------------5---------------||
|-----4-----------------5--6--------o||
|---0---0-6-6-6-6--------------------||
|
|---|   PM------|    PM|
| E E E E S S S S Q  S  S  S S E  E
|------------------------------------||
|------------------------------8-11-o||
|-----------------9----------9-------||
|-5-------8-8-8-8----8----10---------||
|-----7----------------10-----------o||
|---0---0----------------------------||


  2.
 4/4
  PM|   PM------|
  E E E E S S S S Q    S  S  S S E  E E E E  E
|--------------------|-----------6--9-6--------|
|-----------------5--|---------8--------8------|
|--------------------|--------------------6----|
|-2------------------|-5---------------------8-|
|-----4--------------|----5--6-----------------|
|---0---0-6-6-6-6----|-------------------------|
|
| PM|   PM------|      PM|
| E E E E S S S S Q    S  S  S S E  E E E E  E
|--------------------|-------------------------|
|--------------------|-----------8-11-8--------|
|-----------------9--|---------9--------9------|
|-5-------8-8-8-8----|-8----10------------8----|
|-----7--------------|---10-----------------10-|
|---0---0------------|-------------------------|


   Verse [00:43:00]
    Q=112
    N.C.
    PM----|          PM|      PM
    S S S S S  S S S S S S  S S S S S
||------------------------------------||
||o-----------------------------------||
||------------------------------------||
||------------------------------5-----||
||o---------4h=7-3h6-----4h=7-----4---||
||--0-0-0-0----------0-0------3-----3-||
|
|   PM----|          PM|      PM
|   S S S S S  S S S S S S  S S S S S
||------------------------------------||
||o-----------------------------------||
||------------------------------9-----||
||--------------------------------8---||
||o---------7h10-6h9-----7h10-7-----7-||
||--0-0-0-0----------0-0--------------||


 11/8
  PM--|                 PM      PM--|
  S S S  S S S S  S S S S S S S S S S  S S S E
|----------------------------------------------|
|----------------------------------------------|
|--------------------------------------------9-|
|-------------------------8--------------------|
|--------7-4---4--7-3-6-----7---------10-7-----|
|-0-3-6------6----------6-----6-0-6-9------9---|
|
| PM--|                 PM      PM--|
| S S S  S S S S  S S S S S S S S S S  S S S E
|----------------------------------------------|
|----------------------------------------------|
|-------------------------9------------------9-|
|---------------------------8------------------|
|-------10-7---7-10-6-9-7-----7-------10-7-----|
|-0-6-9------9------------------0-6-9------9---|


 4/4
  PM----|         PM|     PM
  S S S S S S S S S S S S S S S S
|---------------------------------||
|---------------------------------||
|---------------------------------||
|---------------------------5-----||
|---------4h7-3h6-----4h7-----4---||
|-0-0-0-0---------0-0-----3-----3-||
|
| PM----|         PM|     PM
| S S S S S S S S S S S S S S S S
|---------------------------------||
|---------------------------------||
|---------------------------9-----||
|---------5h8-4h7-----5h8-----8---||
|-------------------------7-----7-||
|-0-0-0-0---------0-0-------------||


 11/8
  PM--|                PM      PM--|
  S S S  S S S S S S S S S S S S S S  S S S E
|----------------------------------------------||
|---------------------------------------------o||
|-------------------------------------------9--||
|------------------------8---------------------||
|--------7-4---4-7-3-6-----7---------10-7-----o||
|-0-3-6------6---------6-----6-0-6-9------9----||
|
| PM--|                PM      PM--|
| S S S  S S S S S S S S S S S S S S  S S S E
|----------------------------------------------||
|---------------------------------------------o||
|------------------------9------------------9--||
|--------------5h8-4h7-----8----------8-5------||
|-------10-7-----------7-----7------------7---o||
|-0-6-9------9-----------------0-6-9-----------||


   4/4
    PM--|       PM                PM--------|            PM
    S S S S S S E S S S S S S E   S E S S S S S S S  S S E E
||------------------------------|----------------------------|
||o-----------------------------|----------------------------|
||----------------------------9-|--------------------------9-|
||--------8---------------------|-------------8--------------|
||o---------7-----4h7-3h6-4h7---|---------------7---10p7-----|
||--0-0-6-----6-0---------------|-0-0-0-6-9-6-----6------9---|
|
|   PM--|       PM                PM--------|            PM
|   S S S S S S E S S S S S S E   S E S S S S S S S  S S E E
||------------------------------|----------------------------|
||o-----------------------------|----------------------------|
||--------9-------------------9-|-------------9------------9-|
||----------8-----5h8-4h7-5h8---|-------5-8-----8------------|
||o-----------7-----------------|-----------7-----7-10p7-----|
||--0-0-0-------0---------------|-0-0-0------------------9---|


  PM--|       PM
  S S S S S S E S S S S S S E
|-----------------------------|
|-----------------------------|
|---------------------------9-|
|-------8---------------------|
|---------7-----4h7-3h6-4h7---|
|-0-0-6-----6-0---------------|
|
| PM--|       PM
| S S S S S S E S S S S S S E
|-----------------------------|
|-----------------------------|
|-------9-------------------9-|
|---------8-----5h8-4h7-5h8---|
|-----------7-----------------|
|-0-0-0-------0---------------|


 1.                           2.
                              7/8
  PM--------|                  PM--------|
  S E S S S S S S S  E E E     S E S S S S S S S  E E
|---------------------------||------------------------|
|--------------------------o||------------------------|
|------------------------9--||------------------------|
|-------------8-------------||-------------8----------|
|---------------7---10-----o||---------------7---10---|
|-0-0-0-6-9-6-----6---------||-0-0-0-6-9-6-----6------|
|
| PM--------|                  PM--------|
| S E S S S S S S S  E E E     S E S S S S S S S  E E
|---------------------------||------------------------|
|--------------------------o||------------------------|
|-------------9----------9--||-------------9----------|
|-------5-8-----8----8------||-------5-8-----8----8---|
|-----------7-----7--------o||-----------7-----7------|
|-0-0-0---------------------||-0-0-0------------------|


   Chorus [01:18:70]
    Q=208
                                         To Coda
    A#b5/E           N.C.
   8/8
      PM--|   PM     PM--|    PM--------|
                     |-3-|
    E E E E E E Q    E E E Q  S  S  S    S    E  E  4x
||-----------------|-------------------------12h15--||
||o----------------|--------------------13---------o||
||--9-------9---9--|-------9-------15---------------||
||--8-------8---8--|------------15------------------||
||o-7-------7---7--|-------------------------------o||
||----0-0-0---0----|-0-0-0----0---------------------||
|
|     PM--|   PM     PM--|    PM-----------|
|                    |-3-|          |--3---|
|   E E E E E E Q    E E E Q  S  S  S S    S  E  E  4x
||-----------------|-----------------------------6--||
||o----------------|-----------------------5--8----o||
||-----------------|-------9----------5-------------||
||-----------------|----------------8---------------||
||o-1-------1---1--|-------------7-----------------o||
||----0-0-0---0----|-0-0-0----0---------------------||


   [01:28:28]
    Q=176
    N.C.
   4/4
    PM----|     PM----|
    S S S S E E S S S S E E
||--------------------------|
||o-------------------------|
||--------------------------|
||--------------------------|
||o---------------------1h4-|
||--0-0-0-0-3h6-0-0-0-0-----|
|
|   PM----|     PM----|
|   S S S S E E S S S S E E
||--------------------------|
||o-------------------------|
||--------------------------|
||--------------------------|
||o---------------------1h4-|
||--0-0-0-0-3h6-0-0-0-0-----|


  PM----|     PM----|       PM----|     PM----|
  S S S S E E S S S S E E   S S S S E E S S S S E E
|-------------------------|-------------------------|
|-------------------------|-------------------------|
|-------------------------|-------------------------|
|-------------------------|---------------------8p5-|
|---------1h4---------4h7-|---------4h7-------------|
|-0-0-0-0-----0-0-0-0-----|-0-0-0-0-----0-0-0-0-----|
|
| PM----|     PM----|       PM----|     PM----|
| S S S S E E S S S S E E   S S S S E E S S S S E E
|-------------------------|-------------------------|
|-------------------------|-------------------------|
|-------------------------|-------------------------|
|-------------------------|---------------------5p2-|
|---------1h4---------4h7-|---------4h7-------------|
|-0-0-0-0-----0-0-0-0-----|-0-0-0-0-----0-0-0-0-----|


  1.                     2.
                                                     D.S. al Coda
  PM----|                  PM----------|      T
                           |--3---|
  S S S S E E E E E E      S S    S  S  S  S  S  S  S  S  S  E Q
|---------6-9-6--------||---------------7-10h14p10--7-------------|
|-------8-------8-----o||------------9-----------------7----------|
|-----8-----------6----||---------8-----------------------7-------|
|-5-----------------8--||----9-------------------------------9----|
|---5-----------------o||-----------------------------------------|
|----------------------||--7--------------------------------------|
|
| PM----|                  PM--|
| S S S S E E E E E E      S    S    S  S  S  S  S  S  S  S  E Q
|---------3-6-3--------||-----------------14h17p14----------------|
|-------5-------5-----o||--------------15----------15-------------|
|-----5-----------3-0--||-----------14----------------14----------|
|----------------------||------16------------------------16-------|
|-7-------------------o||-----------------------------------17----|
|---4------------------||-14--------------------------------------|


 Chorus [02:46:70]
  Q=208
  &
               A#b5/E           N.C.
 8/8
                 PM--|   PM     PM--|    PM--------|
                                |-3-|
  W            E E E E E E Q    E E E Q  S  S  S    S    E  E   4x
|----------||-----------------|-------------------------12h15---||
|----------||o----------------|--------------------13----------o||
|----------||--9-------9---9--|-------9-------15----------------||
|----------||--8-------8---8--|------------15-------------------||
|----------||o-7-------7---7--|--------------------------------o||
|----------||----0-0-0---0----|-0-0-0----0----------------------||
|
|                PM--|   PM     PM--|    PM-----------|
|                               |-3-|          |--3---|
| W            E E E E E E Q    E E E Q  S  S  S S    S  E  E   4x
|----------||-----------------|-----------------------------6---||
|----------||o----------------|-----------------------5--8-----o||
|----------||-----------------|-------9----------5--------------||
|----------||-----------------|----------------8----------------||
|----------||o-1-------1---1--|-------------7------------------o||
|----------||----0-0-0---0----|-0-0-0----0----------------------||


   [02:57:12]
    Q=176
    N.C.
   4/4
    PM----|     PM----|
    S S S S E E S S S S E E
||--------------------------|
||o-------------------------|
||--------------------------|
||--------------------------|
||o---------------------1h4-|
||--0-0-0-0-3h6-0-0-0-0-----|
|
|   PM----|     PM----|
|   S S S S E E S S S S E E
||--------------------------|
||o-------------------------|
||--------------------------|
||--------------------------|
||o---------------------1h4-|
||--0-0-0-0-3h6-0-0-0-0-----|


  PM----|     PM----|       PM----|     PM----|
  S S S S E E S S S S E E   S S S S E E S S S S E E
|-------------------------|-------------------------|
|-------------------------|-------------------------|
|-------------------------|-------------------------|
|-------------------------|---------------------8p5-|
|---------1h4---------4h7-|---------4h7-------------|
|-0-0-0-0-----0-0-0-0-----|-0-0-0-0-----0-0-0-0-----|
|
| PM----|     PM----|       PM----|     PM----|
| S S S S E E S S S S E E   S S S S E E S S S S E E
|-------------------------|-------------------------|
|-------------------------|-------------------------|
|-------------------------|-------------------------|
|-------------------------|---------------------5p2-|
|---------1h4---------4h7-|---------4h7-------------|
|-0-0-0-0-----0-0-0-0-----|-0-0-0-0-----0-0-0-0-----|


  PM----|
  S S S S E E E E E E  4x  E  E  E  E  E  E  E  E
|---------6-9-6--------||-12h15p12----12h15p12----||
|-------8-------8-----o||----------14----------14-||
|-----8-----------6----||-------------------------||
|-5-----------------8--||-------------------------||
|---5-----------------o||-------------------------||
|----------------------||-------------------------||
|
| PM----|
| S S S S E E E E E E  4x  E  E  E  E  E  E  E  E
|---------3-6-3--------||-------------------------||
|-------5-------5-----o||--8h11p=8-----8h11p=8----||
|-----5-----------3-0--||-----------9-----------9-||
|----------------------||-------------------------||
|-7-------------------o||-------------------------||
|---4------------------||-------------------------||


          D.S.S. al Dbl. Coda
 5/4
            PM-------|
   E E S  S S S E  E  E  E Q
|-----------------------------|
|-----------------------------|
|-12-9------------------------|
|---------------------8--9----|
|------7h10--------7----------|
|-----------0-0-6-------------|
|
|           PM-------|
|  E E S  S S S E  E  E  E Q
|-----------------------------|
|-----------------------------|
|-----------------------12----|
|--8-6---------------11-------|
|------4h=7-------10----------|
|-----------0-0-9-------------|


 Guitar Break [03:39:00]
  &&
  N.C.
 5/4
   S  S  S  S  S  S  S  S  S  S  S  S  S  S  S  S  S  S  S  S
|-------------12-15-12----------------------------------------|
|-11-12-14-15----------15-14-12-11----------------------------|
|----------------------------------12-11-------------12-11----|
|----------------------------------------14-12-11----------14-|
|-------------------------------------------------14----------|
|-------------------------------------------------------------|
|
|  S  S  S  S  S  S  S  S  S  S  S  S  S  S  S  S  S  S  S  S
|----------14-15-18-15-14-------------------------------------|
|-14-15-17----------------17-15-------------------------------|
|-------------------------------18-16-15-------------16-15----|
|----------------------------------------17-16-14----------17-|
|-------------------------------------------------17----------|
|-------------------------------------------------------------|


               PM
   S  S  S  S  S  S  S  S  S  S  S  S  S  S  S  S  E E
|-------------------------14h17h19p17p14---------------*|
|----------------------15----------------15------------*|
|-------------------16----------------------16---------*|
|-12-11----------16----------------------------16------*|
|-------14-13-14----------------------------------17---*|
|------------------------------------------------------*|
|
|              PM
|  S  S  S  S  S  S  S  S  S  S  S  S  S  S  S  S  E E
|-------------------------10h14h15p14p10---------------*|
|----------------------12----------------12------------*|
|-------------------11----------------------11---------*|
|-16-14-------16-12----------------------------12------*|
|-------17-16-------------------------------------14---*|
|------------------------------------------------------*|


 Intestinal Incubation-----------------------------------------------------------------

0:00
 Intro
  Q=250                              Q=230
 3/4                                  7/4
  Gtr I
              PM-------|               PM|     PM------|    PM
|-----------------|------------------|------------------------------|
|-----------------|------------------|------------------------------|
|-----------------|-------------9----|--------------------------9p5-|
|-----------------|-----6--8-10---10-|-------------------10---9-----|
|-------------5-7-|--9---------------|-2-4-1h5-----8-7--------------|
|--0-4--6--8------|------------------|-0-2-----1-4-----8----7-------|
|
| Gtr II
|                       PM|            PM|     PM------|    PM
|-----------------|------------------|------------------------------|
|-----------------|------------------|------------------------------|
|----9-10S13-10-9-|------------------|------------------------------|
|-----------------|-12-10------------|-------------------10---9-----|
|-10--------------|-------13-11------|-----1h5-----8-7--------------|
|-----------------|------------------|-0-2-----1-4-----8----7-------|


                                        Q=250
 9/4                                     3/4           4/4
  PM|     PM--|    PM  PM|          PM|           PM------|
|---------------------------------------|-------------|---------------|
|---------------------------------------|-------------|---------------|
|-----------------------------5-9p5-----|-------------|---------------|
|---------------10---9------------------|-------------|---6-8-10------|
|-----1h5------------------8------------|---------5-7-|-9--------8----|
|-0-2-----0-6-8----7---0-0----------0-6-|-0-4-6-8-----|---------------|
|
| PM|     PM--|    PM  PM|          PM|                   PM--|
|---------------------------------------|-------------|---------------|
|-------------------------------------8-|---5-6S9-6-5-|---------------|
|-----------------------------------6---|-------------|-7-5-----------|
|---------------10---9-------10---------|-5-----------|-----8--0-6----|
|-----1h5------------------8------------|-------------|---------------|
|-0-2-----0-6-8----7---0-0--------------|-------------|---------------|


 0:08
 Riff 1
 5/4
  Gtrs I, II
  PM           PM        PM--|        PM--|
|----------------------|----------------------|
|----------------------|----------------------|
|----------------------|----------------------|
|-------10-----------9-|-------10-----------9-|
|---7-8----8-7---7-8---|---7-8----8-7---7-8---|
|-0------------0-------|-0------------0-------|


  PM           PM
|----------------------|---------------------|
|----------------------|---------------------|
|----------------------|-------------------7-|
|-------10-----------9-|---------------6-8---|
|---7-8----8-7---7-8---|---------5-7-9-------|
|-0------------0-------|-0-4-6-8-------------|


  Gtr I
  PM               PM         PM---|           PM--|
|---------------------------|---------------------------|
|---------------------------|---------------------------|
|---------------------------|---------------------------|
|---------10--------------9-|---------10--------------9-|
|----7--8-----8--7---7-8----|----7--8-----8--7---7-8----|
|-0----------------0--------|-0----------------0--------|
|
| Gtr II
| PM                 PM|      PM                 PM|
|---------------------------|---------------------------|
|---------------------------|---------------------------|
|------------------------10-|------------------------10-|
|---14-12----10-12----------|---14-12----10-12----------|
|--------------------7-8----|--------------------7-8----|
|-0----------------0--------|-0----------------0--------|


  PM---|           PM--|
|---------------------------|----------------------|
|---------------------------|----------------------|
|---------------------------|-------------------7--|
|---------10--------------9-|---------------6-8----|
|----7--8-----8--7---7-8----|---------5-7-9--------|
|-0----------------0--------|-0-4-6-8--------------|
|
| PM                 PM|
|---------------------------|----------------------|
|---------------------------|----------------------|
|------------------------10-|-------------------7--|
|---14-12----10-12----------|---------------6-8----|
|--------------------7-8----|---------5-7-9--------|
|-0----------------0--------|-0-4-6-8--------------|


  Gtrs I, II
  PM            ~~~     PM            ~~~
|---------------------|---------------------|
|---------------------|---------------------|
|---------------------|---------------------|
|-------10------------|-------10------------|
|---7-8----8-7-[8]----|---7-8----8-7-[8]----|
|-0-------------------|-0-------------------|


  PM            ~~~
|---------------------|----------------------|
|---------------------|----------------------|
|---------------------|-------------------7--|
|-------10------------|---------------6-8----|
|---7-8----8-7-[8]----|---------5-7-9--------|
|-0-------------------|-0-4-6-8--------------|


  Gtr I
  PM            ~~~     PM            ~~~
|---------------------|---------------------|
|---------------------|---------------------|
|---------------------|---------------------|
|-------10------------|-------10------------|
|---7-8----8-7-[8]----|---7-8----8-7-[8]----|
|-0-------------------|-0-------------------|
|
| Gtr II
| PM            ~~~     PM            ~~~
|---------------------|---------------------|
|---------------------|---------------------|
|---------------------|--------------[5]----|
|-------10-----[9]----|-------10------------|
|---7-8----8-7--------|---7-8----8-7--------|
|-0-------------------|-0-------------------|


  PM            ~~~
|---------------------|----------------------|
|---------------------|----------------------|
|---------------------|-------------------7--|
|-------10------------|---------------6-8----|
|---7-8----8-7-[8]----|---------5-7-9--------|
|-0-------------------|-0-4-6-8--------------|
|
| PM            ~~~
|---------------------|----------------------|
|---------------------|----------------------|
|---------------------|-------------------7--|
|-------10-----[9]----|---------------6-8----|
|---7-8----8-7--------|---------5-7-9--------|
|-0-------------------|-0-4-6-8--------------|


  Gtrs I, II
  PM           PM        PM           PM
|----------------------|----------------------|
|----------------------|----------------------|
|----------------------|----------------------|
|-------10-----------9-|-------10-----------9-|
|---7-8----8-7---7-8---|---7-8----8-7---7-8---|
|-0------------0-------|-0------------0-------|


  PM           PM
|----------------------|----------------------|
|----------------------|----------------------|
|----------------------|-------------------7--|
|-------10-----------9-|---------------6-8----|
|---7-8----8-7---7-8---|---------5-7-9--------|
|-0------------0-------|-0-4-6-8--------------|


  Gtr I
  PM               PM         PM               PM
|---------------------------|---------------------------|
|---------------------------|---------------------------|
|---------------------------|---------------------------|
|---------10--------------9-|---------10--------------9-|
|----7--8-----8--7---7-8----|----7--8-----8--7---7-8----|
|-0----------------0--------|-0----------------0--------|
|
| Gtr II
| PM                 PM|      PM                 PM|
|---------------------------|---------------------------|
|---------------------------|---------------------------|
|------------------------10-|------------------------10-|
|---14-12----10-12----------|---14-12----10-12----------|
|--------------------7-8----|--------------------7-8----|
|-0----------------0--------|-0----------------0--------|


  PM               PM
|---------------------------|----------------------|
|---------------------------|----------------------|
|---------------------------|-------------------7--|
|---------10--------------9-|---------------6-8----|
|----7--8-----8--7---7-8----|---------5-7-9--------|
|-0----------------0--------|-0-4-6-8--------------|
|
| PM                 PM|
|---------------------------|----------------------|
|---------------------------|----------------------|
|------------------------10-|-------------------7--|
|---14-12----10-12----------|---------------6-8----|
|--------------------7-8----|---------5-7-9--------|
|-0----------------0--------|-0-4-6-8--------------|


 0:36
 Pre-verse
  Q=230
 8/4                                3/4
      PM|     PM------|    PM        PM|
|----------------------------------|----------|
|----------------------------------|----------|
|-9p5--------------------------9p5-|----------|
|-----------------------10---9-----|----------|
|---------1h5-----8-7--------------|-----1h5--|
|-----0-2-----1-4-----8----7-------|-0-2------|
|
|     PM|     PM------|    PM        PM|
|----------------------------------|----------|
|----------------------------------|----------|
|----------------------------------|----------|
|-----------------------10---9-----|----------|
|---------1h5-----8-7--------------|-----1h5--|
|-----0-2-----1-4-----8----7-------|-0-2------|


   0:39
  Verse
   5/4                    3/4
    PM--|   PM             PM--|   PM---------|   PM    PM----------|
||-----------------------|--------------|-------------|----------------|
||o----------------------|--------------|-------------|----------------|
||-----------------------|--------------|-------------|----------------|
||--------9---9----------|-------9------|-------9---9-|----------------|
||o---7-8---8------------|---7-8---8-10-|---7-8---8---|-8----7---------|
||--0-----------0-6-8-10-|-0------------|-0-----------|---10---9-11-8--|
|
|   PM--|   PM             PM--|   PM---------|   PM    PM----------|
||-----------------------|--------------|-------------|----------------|
||o----------------------|--------------|-------------|----------------|
||-----------------------|--------------|-------------|----------------|
||--------9---9----------|-------9------|-------9---9-|-6----5---------|
||o---7-8---8------------|---7-8---8-10-|---7-8---8---|----8---7--9-6--|
||--0-----------0-6-8-10-|-0------------|-0-----------|----------------|


 5/4                    3/4
  PM--|   PM             PM--|   PM----
|----------------------|--------------|
|----------------------|--------------|
|----------------------|--------------|
|-------9---9----------|-------9------|
|---7-8---8------------|---7-8---8-10-|
|-0-----------0-6-8-10-|-0------------|
|
| PM--|   PM             PM--|   PM----
|----------------------|--------------|
|----------------------|--------------|
|----------------------|--------------|
|-------9---9----------|-------9------|
|---7-8---8------------|---7-8---8-10-|
|-0-----------0-6-8-10-|-0------------|


 -----|   PM    PM--------------|    PM   PM
|-------------|---------------|------------------||
|-------------|---------------|-----------------o||
|-------------|---------------|------------------||
|-------9---9-|---------------|------------------||
|---7-8---8---|-8----7--------|----7----7----8--o||
|-0-----------|---10---9-11-8-|-4----4----5------||
|
|-----|   PM    PM--------------|    PM   PM
|-------------|---------------|------------------||
|-------------|---------------|-----------------o||
|-------------|---------------|------------------||
|-------9---9-|-6----5--------|------------------||
|---7-8---8---|----8---7--9-6-|---10---11---11--o||
|-0-----------|---------------|-7----8----8------||


 0:56
 Riff 2
 7/4
  PM|     PM|     PM   PM   PM
|--------------------------------|
|--------------------------------|
|-----9p5------------------------|
|--------------------------------|
|-------------1h5----7----7----8-|
|-0-0-----0-2-----4----4----5----|
|
| PM|     PM|     PM   PM   PM
|--------------------------------|
|--------------------------------|
|--------------------------------|
|--------------------------------|
|-------------1h5---10---11---11-|
|-0-0-----0-2-----7----8----8----|


 11/4
      PM|     PM   PM   PM--|   PM  PM   PM   PM
|--------------------------------------------------|
|--------------------------------------------------|
|-9p5----------------------------------------------|
|-----------------------------9---9----------------|
|---------1h5----7----7---7-8---8------7----7----8-|
|-----0-2-----4----4----0-----------4----4----5----|
|
|     PM|     PM   PM   PM--|   PM  PM   PM   PM
|--------------------------------------------------|
|--------------------------------------------------|
|--------------------------------------------------|
|-----------------------------9---9----------------|
|---------1h5---10---11---7-8---8-----10---11---11-|
|-----0-2-----7----7----0-----------7----8----8----|


 7/4                              8/4
  PM|     PM|     PM   PM   PM         PM|     PM   PM   PM--|   PM
|--------------------------------|-----------------------------------|
|--------------------------------|-----------------------------------|
|-----9p5------------------------|-9p5-------------------------------|
|--------------------------------|-----------------------------9---9-|
|-------------1h5----7----7----8-|---------1h5----7----7---7-8---8---|
|-0-0-----0-2-----4----4----5----|-----0-2-----4----4----0-----------|
|
| PM|     PM|     PM   PM   PM         PM|     PM   PM   PM--|   PM
|--------------------------------|-----------------------------------|
|--------------------------------|-----------------------------------|
|--------------------------------|-----------------------------------|
|--------------------------------|-----------------------------9---9-|
|-------------1h5---10---11---11-|---------1h5---10---11---7-8---8---|
|-0-0-----0-2-----7----8----8----|-----0-2-----7----7----0-----------|


 1:05
 Riff 3
 7/4
        PM|            PM|        PM|          PM|            PM|        PM|
|--------------------------------------|--------------------------------------|
|--------------------------------------|--------------------------------------|
|--9p5------------9p5------------------|--9p5------------9p5------------------|
|--------------------------------------|--------------------------------------|
|-----------1h=5------------1h=5-------|-----------1h=5------------1h=5-------|
|-------0-2------------0-2--------0--2-|-------0-2------------0-2--------0--2-|
|
|       PM----|        PM-----------|          PM----|        PM-----------|
|--------------------------------------|--------------------------------------|
|--------------------------------------|--------------------------------------|
|-13p9----9------13p9----9----13-11----|-13p9----9------13p9----9----13-11----|
|------10---9---------10---11-------10-|------10---9---------10---11-------10-|
|-------------11-----------------------|-------------11-----------------------|
|--------------------------------------|--------------------------------------|


        PM|            PM|        PM|          PM|          PM|     PM|
|--------------------------------------|--------------------------------|
|--------------------------------------|--------------------------------|
|--9p5------------9p5------------------|--9p5-----------9p5-------------|
|--------------------------------------|--------------------------------|
|-----------1h=5------------1h=5-------|-----------1h=5---------1h5-----|
|-------0-2------------0-2--------0--2-|-------0-2----------0-2-----0-2-|
|
|       PM----|        PM-----------|          PM----|      PM|     PM|
|--------------------------------------|--------------------------------|
|--------------------------------------|--------------------------------|
|-13p9----9------13p9----9----13-11----|-13p9----9----------------------|
|------10---9---------10---11-------10-|------10---9--------------------|
|-------------11-----------------------|-------------11---------1h5-----|
|--------------------------------------|--------------------0-2-----0-2-|


  Gtrs I, II
      PM|         PM|     PM|       PM|         PM|     PM|
|-----------------------------|-----------------------------|
|-----------------------------|-----------------------------|
|-9p5---------9p5-------------|-9p5---------9p5-------------|
|-----------------------------|-----------------------------|
|---------1h5---------1-5-----|---------1h5---------1h5-----|
|-----0-2---------0-2-----0-2-|-----0-2---------0-2-----0-2-|


                               8/4
  Gtr I
      PM|         PM|     PM|       PM|     PM--|    PM  PM--|
|-----------------------------|----------------------------------|
|-----------------------------|----------------------------------|
|-9p5---------9p5-------------|-9p5----------------------------5-|
|-----------------------------|-------------------10---9---------|
|---------1h5---------1h5-----|---------1h5---7-8----8-----------|
|-----0-2---------0-2-----0-2-|-----0-2-----0------------0-0-1---|
|
| Gtr II
|     PM|         PM|     PM|       PM|     PM--|    PM  PM--|
|-----------------------------|----------------------------------|
|-----------------------------|----------------------------------|
|-9p5---------9p5-------------|--------------------------------5-|
|-----------------------------|-------------------10---9---------|
|---------1h5---------1-5-----|---------1h5---7-8----8-----------|
|-----0-2---------0-2-----0-2-|-----0-2-----0------------0-0-1---|


          Q=250
 2/4       7/4
      PM|               PM-----|
|---------|-----------------------------------|
|---------|-----------------------------------|
|-9p5-----|-----------------------------------|
|---------|---------------------6--8-10-------|
|---------|-------------5-7--9-----------8----|
|-----0-7-|--0-4--6--8------------------------|
|
|     PM|                       PM---|
|---------|-----------------------------------|
|-------8-|-----------------------------------|
|-----6---|----9-10S13-10-9-------------------|
|---------|-----------------12-10-------------|
|---------|-10--------------------13----11----|
|---------|--------------------------10-------|


 1:24

 Riff 1


 Guitar Solo (1:54)
  Q=100
 4/4
  Gtrs I, II
|-----------------|-----------------------|
|-----------------|-----------------------|
|-----------------|-----------------------|
|-10----------10--|----6------------------|
|-10----------11--|----7------------------|
|--8-----------8--|----4--------------9\--|
|
| Gtr III
|       \1                     /      /
|-----------------|-------------------0---|
|-----------------|-------------------0---|
|-----[14]--------|-([14])--([14])----0---|
|-----------------|-----------------------|
|-----------------|-----------------------|
|-----------------|-----------------------|
|
| Gtr IV
|       \1                     /      /
|-----------------|-------------------0---|
|-----------------|-------------------0---|
|-----[10]--------|-([10])--([10])----0---|
|-----------------|-----------------------|
|-----------------|-----------------------|
|-----------------|-----------------------|


                  Q=220
|-----------------|--------------------------------------|
|-----------------|--------------------------------------|
|-----------------|--------------------------------------|
|--10---------10--|--6-----------------------------------|
|--10---------11--|--7-----------------------------------|
|---8----------8--|--4-----------------------------------|
|
|   \1.5
|                                               ~~~~~~~
|-----------------|-------------16-20-21-20-16-16-(16)---|
|-----------------|----------18--------------------------|
|-----------------|-------16-----------------------------|
|-[13]------------|----18--------------------------------|
|-----------------|-20-----------------------------------|
|-----------------|--------------------------------------|
|
|   \1.5
|                                               ~~~~~~~
|-----------------|-------------13-17-18-17-13-13-(13)---|
|-----------------|----------18--------------------------|
|-----------------|-------13-----------------------------|
|-[11]------------|----15--------------------------------|
|-----------------|-17-----------------------------------|
|-----------------|--------------------------------------|


 4/4
  Gtrs I, II
      PM---------------------------|
|-------------------------------------|
|-------------------------------------|
|-------------------------------------|
|--3----------------------------------|
|-------------------------------------|
|-----1--1--1--1--1--1--1--1--1--1--1-|
|
| Gtr III
|-20-16----------16-20h21-20-16-------|
|-------18----18----------------18----|
|----------17----------------------17-|
|-------------------------------------|
|-------------------------------------|
|-------------------------------------|


      PM---------|     PM-------------|
|------------------------------------------|
|------------------------------------------|
|------------------------------------------|
|------------------------------------------|
|--4-----------------3---------------------|
|-----1--1--1--1--1----1-1--1----1----1----|
|
|----16-20h21-20-16-----------16---19---16-|
|-18----------------18-----18--------------|
|------------------------------------------|
|------------------------------------------|
|------------------------------------------|
|------------------------------------------|


        PM---------------------------------------------------|
|--------------------------------------------------------------|
|--------------------------------------------------------------|
|--------------------------------------------------------------|
|--3-----------------------------------------------------------|
|--------------------------------------------------------------|
|-------1----1-----1----1----1-----1----1----1-----1----1----1-|
|
|                                                          ~~~~~
|--------------------------------------------------------------|
|-20-18--------------------------------------------------------|
|---------21---18-21-18----------------------------------------|
|-------------------------22---20-18h20---22---20-18h20---17---|
|--------------------------------------------------------------|
|--------------------------------------------------------------|


       PM--------|      PM--------|
|------------------------------------|
|------------------------------------|
|------------------------------------|
|------------------------------------|
|---4----------------4---------------|
|------1-1--1--1--1-----1--1--1-1-1--|
|
|~~~~~~                       ~~
|-------------------18---------------|
|----------------18----18------------|
|-------------18----------18---------|
|-(17)-----20----------------20------|
|------------------------------------|
|------------------------------------|


      PM------------------|      PM----------|      PM---------|
|---------------------------|------------------------------------|
|---------------------------|------------------------------------|
|---------------------------|------------------------------------|
|--2------------------------|------------------------------------|
|---------------------------|--3---------------3-----------------|
|-----0-0-0-0-0-0-0-0-0-0-0-|----0-0--0----0-0------0----0-0-0-0-|
|
|  \1
|                                     T           T    ~~
|---------------------------|--------24----------24--------------|
|-<5>-----------------------|-20--------20------------20---------|
|---------------------------|------------------------------------|
|---------------------------|------------------------------------|
|---------------------------|------------------------------------|
|---------------------------|------------------------------------|


     PM---------------------------------|      PM--------|      PM---------|
|-----------------------------------------|----------------------------------|
|-----------------------------------------|----------------------------------|
|-----------------------------------------|----------------------------------|
|--2--------------------------------------|----------------------------------|
|-----------------------------------------|--3---------------4---------------|
|----0----0--0-0----0--0-0----0--0-0----0-|----0-0--0--0--0-----0---0--0-0-0-|
|
|----------------18------------------18S==|=21-----18h21----21p18-/22--------|
|--------------------------18-------------|--------------20-----------20-----|
|-----------------------------------------|----------------------------------|
|-17--------20--------20--------20--------|----------------------------------|
|------19---------------------------------|----------------------------------|
|-----------------------------------------|----------------------------------|


  Gtrs I, II
        PM-------------------------------------|
|---------------------------------------------------|
|---------------------------------------------------|
|---------------------------------------------------|
|---3-----------------------------------------------|
|---------------------------------------------------|
|-------1--1--1--1--1--1--1--1---1-----1-------1----|
|
| Gtr III
|---------------------------------------------------|
|-(20)----------------------------------------------|
|---------------------------------------------------|
|---------------------------------------------------|
|---------------------------------------------------|
|---------------------------------------------------|
|
| Gtr IV
|                            ~~~~~~~
|---------------------------------------------------|
|---------------------------------------------------|
|---------------17----------------------------------|
|---------17-18----18-17-15--------------15-17---18-|
|--16--19-------------------16-(16)-16--------------|
|---------------------------------------------------|


        PM-------------------|          PM-------------------|
|-----------------------------------------------------------------|
|-----------------------------------------------------------------|
|-----------------------------------------------------------------|
|-----------------------------------------------------------------|
|--4-------------------------------3------------------------------|
|-------1----1-----1----1----1----------1----1-----1----1----1----|
|
|-----------------------------------------------------------------|
|-----------------------------------------------------------------|
|-----------------------------------------------------------------|
|-----------------------------------------------------------------|
|-----------------------------------------------------------------|
|-----------------------------------------------------------------|
|
|-----------------------------------------------------------------|
|---------15---18-15S14-----------------------------------16---18-|
|-15-17-------------------15---------16---17---17-17-19-----------|
|------------------------------17-18------------------------------|
|-----------------------------------------------------------------|
|-----------------------------------------------------------------|


  Gtrs I, II
        PM------------------------------------------------|
|-----------------------------------------------------------|
|-----------------------------------------------------------|
|-----------------------------------------------------------|
|--3--------------------------------------------------------|
|-----------------------------------------------------------|
|-------1-1-----1----1----1-----1----1----1-----1----1----1-|
|
| Gtr IV
|-----------------------------------------------------------|
|-21b23r====19-18-------------------------------------------|
|-----------------19--------19-21-----------21--------------|
|----------------------22---------22---21------18-17---18---|
|-----------------------------------------------------------|
|-----------------------------------------------------------|


     PM---------|         PM------|
|-----------------------------------|
|-----------------------------------|
|-----------------------------------|
|-----------------------------------|
|--4----------------4---------------|
|----1-1-1-1----1---------1-1-1-1-1-|
|
|-----------------------------------|
|------------21---(21)b23-----------|
|-----------------------------------|
|-17--------------------------------|
|-----------------------------------|
|-----------------------------------|


        PM---------------------------------------------------|
|-----------------------------------------------------------------|
|-----------------------------------------------------------------|
|-----------------------------------------------------------------|
|--2--------------------------------------------------------------|
|-----------------------------------------------------------------|
|-------0----0-----0----0----0-----0----0----0-----0----0----0----|
|
|-15-16---19---16-15----------------------------------------------|
|--------------------18---17---14-17-18---14----------------------|
|----------------------------------------------17-15--------------|
|----------------------------------------------------18---17---18-|
|-----------------------------------------------------------------|
|-----------------------------------------------------------------|


     PM-------------------|          PM----------|
|--------------------------------------------------|
|--------------------------------------------------|
|--------------------------------------------------|
|--------------------------------------------------|
|--3----------------------------3------------------|
|----0----0-----0----0----0----------0-----0-0-0-0-|
|
|                                       \2
|--------------------------------------------------|
|------17---18-17-14-------------------------------|
|-17-------------------17---15----15---------------|
|------------------------------18------17----------|
|--------------------------------------------------|
|--------------------------------------------------|


       PM-------------------|        PM------|     PM-------|
|-----------------------------|-------------------------------|
|-----------------------------|-------------------------------|
|-----------------------------|-------------------------------|
|---2-------------------------|-------------------------------|
|-----------------------------|---3------------4--------------|
|------0-0-0--0-0-0-0-0-0-0-0-|------0-0-0-0-0-----0--0-0-0-0-|
|
|             /
|------------21---------------|-(21)-------------(21)---------|
|-----------------------------|-------------------------------|
|-----------------------------|-------------------------------|
|-(17)------------------------|-------------------------------|
|-----------------------------|-------------------------------|
|-----------------------------|-------------------------------|


 Guitar Solo (2:20)
                                         PM--|
|------------------------------|--------------------------|
|------------------------------|--------------------------|
|------------------------------|------------------1h5p1---|
|---3--------------------------|-(3)--------------------3-|
|---3--------------------------|-(3)----------------------|
|---1--------------------------|-(1)-----1---1------------|
|
| Gtr III
|                 T      T        T      T        ~~~
|------------4h8-13p8p4-12p8p4-|-15p9p4-12p9p==4-13-----8-|
|----------6-------------------|--------------------------|
|--------5---------------------|--------------------------|
|------6-----------------------|--------------------------|
|---8--------------------------|--------------------------|
|------------------------------|--------------------------|
|
| Gtr IV
|   |
|-(21)-------------------------|--------------------------|
|------------------------------|--------------------------|
|------------------------------|--------------------------|
|------------------------------|--------------------------|
|------------------------------|--------------------------|
|------------------------------|--------------------------|


                                                  ~~~
|-----------------------------|----------------------------|
|-----------------------------|----------------------------|
|-----------------------------|----------------------------|
|-3---------------------------|-(3)------------------------|
|-3---------------------------|-(3)------3h4-----[3]-------|
|-1---------------------------|-(1)------------------------|
|
|              T                     T            ~~~
|-4-------4-8-16s20p4-------4h|==8--13p8p4-------------14S=|
|---6---6-------------6---6---|--------------6-8-(8)-------|
|-----5-----------------5-----|----------------------------|
|-----------------------------|----------------------------|
|-----------------------------|----------------------------|
|-----------------------------|----------------------------|
|
|-----------------------------|----------------------------|
|-----------------------------|----------------------------|
|-----------------------------|----------------------------|
|-----------------------------|----------------------------|
|-----------------------------|----------------------------|
|-----------------------------|----------------------------|


                            PM-------------|
|-----------|--------------------------------|
|-----------|--------------------------------|
|-----------|--------------------0----4----0-|
|-----------|----------------------------2---|
|-----------|--------------------------------|
|--0--------|-(0)-----------0-0--------------|
|
|  ~~                                    ~~
|-19--------|-19--19-19-19-19---19b20r==19---|
|-----------|--------------------------------|
|-----------|--------------------------------|
|-----------|--------------------------------|
|-----------|--------------------------------|
|-----------|--------------------------------|


                                                              ~~
|-------------------------------------|-------------------------------------|
|-------------------------------------|-------------------------------------|
|-------------------------------------|-------------------------------------|
|-------------------------------------|-------------------------------------|
|-------------------------------------|-------------------------------------|
|--0----------------------------------|-(0)--------3S4--------3-------------|
|
|                       T                          T          ~~
|-20p14----------14h20-24p20-14-------|-----14-20-24---20-------------------|
|-------17----17----------------17----|-17----------------19----------------|
|----------15----------------------15-|----------------------21-------------|
|-------------------------------------|--------------------------15h17------|
|-------------------------------------|--------------------------------15---|
|-------------------------------------|-------------------------------------|


                         PM----|
|-----------|-------------------------------------|
|-----------|-------------------------------------|
|-----------|----------------------1h====5p==1----|
|--3--------|--(3)------------------------------3-|
|--3--------|--(3)--------------------------------|
|--1--------|--(1)-------1-----1------------------|
|
|  ~~
|-19--------|-(19)b20r=(19)b20r==(19)b20r==(19)---|
|-----------|-------------------------------------|
|-----------|-------------------------------------|
|-----------|-------------------------------------|
|-----------|-------------------------------------|
|-----------|-------------------------------------|


                                                  ~~~~~~~~
|----------------------------|---------------------------------|
|----------------------------|---------------------------------|
|----------------------------|---------------------------------|
|--3-------------------------|-(3)-----------------------------|
|--3-------------------------|-(3)------3h====4--[3]-----------|
|--1-------------------------|-(1)-----------------------------|
|
|                   T
|-19-19-19-19b20---24-19pb20r|=19b20r=(19)b20r==(19)b20r=(19)--|
|----------------------------|---------------------------------|
|----------------------------|---------------------------------|
|----------------------------|---------------------------------|
|----------------------------|---------------------------------|
|----------------------------|---------------------------------|


                                                   PM------------|
|-------------------------------------|-----------------------------|
|-------------------------------------|-----------------------------|
|-------------------------------------|------------------0--4-----0-|
|-------------------------------------|------------------------2----|
|-------------------------------------|-----------------------------|
|--0----------------------------------|-(0)--------0--0-------------|
|
|                    T
|-19p15----------15-24p19p15----------|-15h19h20-(20)---19-20-17-20-|
|-------17----17-------------17----17-|-----------------------------|
|----------16-------------------16----|-----------------------------|
|-------------------------------------|-----------------------------|
|-------------------------------------|-----------------------------|
|-------------------------------------|-----------------------------|


                                            ~
|-----------------------|------------------------------|
|-----------------------|------------------------------|
|-----------------------|------------------------------|
|-----------------------|------------------------------|
|-----------------------|------------------------------|
|--0--------------------|-(0)--------3S===4-3----------|
|
|                    ~~
|-15-20----20----20-----|-17--19-20-24b26------24b25r==|
|-------19----17----16--|------------------------------|
|-----------------------|------------------------------|
|-----------------------|------------------------------|
|-----------------------|------------------------------|
|-----------------------|------------------------------|


 Guitar Solo (2:39)
 6/4
  Gtrs I, II
                                         PM      PM         PM
|---------------------------------------------------------------------|
|---------------------------------------------------------------------|
|-------------------1h=======5p=====1---------------------------------|
|--------------------------------------3------------------------------|
|------------3------------------------------2-------------------------|
|---1------------------------------------0-------0-----3----0------2--|
|
| Gtr III
|-(24)b25r========(24)b25r========(24)--------------------------------|
|---------------------------------------------------------------------|
|---------------------------------------------------------------------|
|---------------------------------------------------------------------|
|---------------------------------------------------------------------|
|---------------------------------------------------------------------|
|
| Gtr IV
|                                   ~~~~                       ~~~~~~~
|--18-----21-------21----------21-------------------------------------|
|--------------20---------18-------17------15-17---18-17-15-----------|
|-------------------------------------------------------------17-(17)-|
|---------------------------------------------------------------------|
|---------------------------------------------------------------------|
|---------------------------------------------------------------------|


   PM---|                   PM         PM         PM
|-------------------------------------------------------------|
|--------------------------------6----------------------------|
|-----------1h====5p==1---------------------6-----------5-----|
|------------------------3--3----------3----------3-----------|
|-------3-----------------------------------------------------|
|--1----------------------------------------------------------|
|
|-------------------------------------------------------------|
|-------------------------------------------------------------|
|-------------------------------------------------------------|
|-------------------------------------------------------------|
|-------------------------------------------------------------|
|-------------------------------------------------------------|
|
|-24b25r==(24)b25r==(24)---18-21---24-21-18-------------------|
|---------------------------------------------21----/21---23--|
|------------------------------------------------19-----------|
|-------------------------------------------------------------|
|-------------------------------------------------------------|
|-------------------------------------------------------------|


  Gtrs I, II
                              PM         PM         PM
|-------------------------------------------------------------|
|-------------------------------------------------------------|
|-------------1h===5p====1------------------------------------|
|--------------------------3----------------------------------|
|-------3--------------------------2--------------------------|
|--1--------------------------0----------0----3-----0----2----|
|
| Gtr IV
|     T                  ~~              T
|-21-24---21--------------------19------24-19-----------------|
|------------23-20---23------20------20---------20----20------|
|-----------------------23-------------------------21------21-|
|-------------------------------------------------------------|
|-------------------------------------------------------------|
|-------------------------------------------------------------|


   PM---|                PM  PM
|--------------------------------------|
|--------------------------6-----------|
|-------------1h===5p1---------6---5---|
|----------------------3-3---3---------|
|-------3------------------------------|
|--1-----------------------------------|
|
|-20---------21b27r==============(21)--|
|----20--------------------------------|
|---------21---------------------------|
|--------------------------------------|
|--------------------------------------|
|--------------------------------------|


 2:46
 Solo outro
              PM  PM  PM    PM|         PM  PM  PM
|-------------------------|-------------------------|
|-------------------------|---------------6---------|
|-----1h5p1---------------|-----1h5p1---------6---5-|
|-----------3-------------|-----------3-3---3---3---|
|---3-----------2---------|---3---------------------|
|-1-----------0---0-3-0-2-|-1-----------------------|


              PM  PM  PM    PM|         PM  PM  PM
|-------------------------|-------------------------|
|-------------------------|---------------5---------|
|-----1h5p1---------------|-----1h5p1---------5---4-|
|-----------3-------------|-----------3-2---2---2---|
|---3-----------2---------|---3---------------------|
|-1-----------0---0-3-0-2-|-1-----------------------|


 2:53
 7/4                            4/4
  Gtr I
      PM|     PM------|    PM        PM|
|------------------------------|---------------|
|------------------------------|---------------|
|-9p5--------------------------|-9p5-----------|
|-----------------------10---9-|---------------|
|---------1h5-----8-7----------|---------1h5---|
|-----0-2-----1-4-----8----7---|-----0-2-------|
|
| Gtr II
|     PM|     PM------|    PM        PM|
|------------------------------|---------------|
|------------------------------|---------------|
|------------------------------|---------------|
|-----------------------10---9-|---------------|
|---------1h5-----8-7----------|---------1h5---|
|-----0-2-----1-4-----8----7---|-----0-2-------|


 2:56

 Verse

 3:13

 Riff 2

 3:22

 Riff 3

 3:41

 Riff 1



 Culinary Hyperversity-------------------------------------------------

Drum Intro Riff A (0:01)
  Q=170
 6/8
  Gtrs I, II
             PM----------------------------------|
|----------|-------------------------|-------------------------|
|----------|-------------------------|-------------------------|
|----------|-------------------------|-------------------------|
|------[4]-|-------------------------|-------------4-4-4-4-4-4-|
|----------|-------------------------|-------------------------|
|----------|-1-1-1-1-1-1-1-1-1-1-1-1-|-0-0-0-0-0-0-------------|


  PM--------|               PM--------------------|
|-------------------------|-------------------------|
|-------------------------|-------------------------|
|-------------------------|-------------------------|
|-------------3-3-3-3-3-3-|-------------------------|
|-------------------------|-------------------------|
|-1-1-1-1-1-1-------------|-0-0-0-0-0-0-2-2-2-2-2-2-|


  Gtr I
    PM--------------------------------|
|-------------------------|-------------------------|
|-------------------------|-------------------------|
|-------------------------|-------------------------|
|-------------------------|-------------4-4-4-4-4-4-|
|-------------------------|-------------------------|
|-1-1-1-1-1-1-1-1-1-1-1-1-|-0-0-0-0-0-0-------------|
|
| Gtr II
| PM----------------------------------|
|-------------------------|-------------------------|
|-------------------------|-------------------------|
|-------------------------|-------------------------|
|-------------------------|-------------4-4-4-4-4-4-|
|-------------------------|-------------------------|
|-1-1-1-1-1-1-1-1-1-1-1-1-|-0-0-0-0-0-0-------------|


  PM--------|
|---------------------------|----------------------14-----------|
|---------------------------|-------------10-14-------14--------|
|---------------------------|----------11-------14--------------|
|-------------3-3-3-[7]b9---|-------11--------------------------|
|---------------------------|----12----------------------12--9--|
|-1-1-1-1-1-1---------------|-14--------------------------------|
|
| PM--------|
|---------------------------|-------------------21--------------|
|---------------------------|----------------------22-----------|
|-------------------[8]b10--|-------------------------21--------|
|-------------3-3-3---------|----------------------------23-19--|
|---------------------------|-----------------------------------|
|-1-1-1-1-1-1---------------|-----------------------------------|


 Riff B (0:10)
  Gtrs I, II
  PM--|         PM|   PM|     PM--|
|-------------|-------------|-------8-----|---------5h9-5----------|
|-------6-----|-------------|---------9---|-------7-------7--------|
|-----5---5---|-----4-----6-|-----5-----5-|-----6-----------6------|
|---6-------6-|---5-----7---|---6---------|---7---------------7----|
|-8-----------|-7-----9-----|-8-----------|-9-------------------9--|
|-------------|-------------|-------------|------------------------|


  Gtr I
  PM--|         PM|   PM|     PM--|
|-------------|-------------|--------8h=9----|-------------9h13--9-------------|
|-------6-----|-------------|--------------6-|----------11---------11----------|
|-----5---5---|-----4-----6-|-----5----------|-------10---------------10-------|
|---6-------6-|---5-----7---|---6------------|----11---------------------11----|
|-8-----------|-7-----9-----|-8--------------|-13---------------------------13-|
|-------------|-------------|----------------|---------------------------------|
|
| Gtr II
| PM--|         PM|   PM|     PM--|
|-------------|-------------|-------12h13----|------------------13-------------|
|-------6-----|-------------|-------------14-|---------------------14----------|
|-----5---5---|-----4-----6-|-----5----------|------------------------15-------|
|---6-------6-|---5-----7---|---6------------|---------------------------15----|
|-8-----------|-7-----9-----|-8--------------|------------------------------16-|
|-------------|-------------|----------------|---------------------------------|


   Riff C (0:18)
      PM------------|     PM--|
||--------------------|---------------------|
||o-------------------|---------------------|
||--------------------|---------------------|
||--------------------|---------------------|
||o-1-----------------|-1-------------------|
||----0-0-0-0-0-0-0-0-|---0-0-0-------------|
|
|     PM------------|     PM--|
||--------------------|-----------------6h9-|
||o-------------------|---------------7-----|
||--------------------|-------------7-------|
||--------------------|-----------8---------|
||o-1-----------------|-1-------9-----------|
||----0-0-0-0-0-0-0-0-|---0-0-0-------------|


    PM------------|
|-------------------|-------------9h13--9---------------||
|-------------------|----------11---------11-----------o||
|-------------------|-------10---------------10---------||
|-------------------|----11---------------------11------||
|-1-----------------|-13---------------------------13--o||
|---0-0-0-0-0-0-0-0-|-----------------------------------||
|
|   PM------------|
|-------------------|------------------13---------------||
|-------------------|---------------------14-----------o||
|-------------------|------------------------15---------||
|-------------------|---------------------------15------||
|-1-----------------|------------------------------16--o||
|---0-0-0-0-0-0-0-0-|-----------------------------------||


 9/8
|-12-----------------------------|
|----12--------------------------|
|-------12-----------------6-----|
|----------14-----------3--------|
|-------------14-----4-----------|
|-----------------6--------------|
|
|-15h19-15-----------------------|
|----------17-------14-12-14-----|
|-------------16----14-12--------|
|----------------11--------------|
|--------------------------------|
|--------------------------------|


 Riff A (0:29)


 Verse (0:37): a slightly different riff from Riff A
  PM-------------------------------------------------
|-------------------------|-------------------------|
|-------------------------|-------------------------|
|-------------------------|-------------------------|
|-------------------------|-------------------------|
|-------------------------|-------------------------|
|-1-1-1-1-1-1-1-1-1-1-1-1-|-0-0-0-0-0-0-2-2-2-2-2-2-|
|
| PM-------------------------------------------------
|-------------------------|-------------------------|
|-------------------------|-------------------------|
|-------------------------|-------------------------|
|-------------------------|-------------------------|
|-------------------------|-------------------------|
|-1-1-1-1-1-1-1-1-1-1-1-1-|-0-0-0-0-0-0-2-2-2-2-2-2-|


 -------------------------------------|  ~~~
|-------------------------|--------------------|
|-------------------------|--------------------|
|-------------------------|--------------------|
|-------------------------|--------------------|
|-------------------------|-------------[4]----|
|-1-1-1-1-1-1-1-1-1-1-1-1-|-0-0-0-0-0-0--------|
|
|-------------------------------------|  ~~~
|-------------------------|--------------------|
|-------------------------|--------------------|
|-------------------------|--------------------|
|-------------------------|--------------------|
|-------------------------|-------------[7]----|
|-1-1-1-1-1-1-1-1-1-1-1-1-|-0-0-0-0-0-0--------|


  Gtr I
  PM-------------------------------------------------
|-------------------------|-------------------------|
|-------------------------|-------------------------|
|-------------------------|-------------------------|
|-------------------------|-------------------------|
|-------------------------|-------------------------|
|-1-1-1-1-1-1-1-1-1-1-1-1-|-0-0-0-0-0-0-2-2-2-2-2-2-|
|
| Gtr II
| PM-------------------------------------------------
|-------------------------|-------------------------|
|-------------------------|-------------------------|
|-------------------------|-------------------------|
|-------------------------|-------------------------|
|-------------------------|-------------------------|
|-1-1-1-1-1-1-1-1-1-1-1-1-|-0-0-0-0-0-0-2-2-2-2-2-2-|


 -----------|
|---------------------------|----------------------14-----------|
|---------------------------|-------------10-14-------14--------|
|---------------------------|----------11-------14--------------|
|-------------3-3-3-[7]b9---|-------11--------------------------|
|---------------------------|----12----------------------12--9--|
|-1-1-1-1-1-1---------------|-14--------------------------------|
|
|-----------|
|---------------------------|-------------------21--------------|
|---------------------------|----------------------22-----------|
|-------------------[8]b10--|-------------------------21--------|
|-------------3-3-3---------|----------------------------23-19--|
|---------------------------|-----------------------------------|
|-1-1-1-1-1-1---------------|-----------------------------------|


 Riff B (0:46)

 Riff C (0:54)

 Chorus (1:04): a variation on Riff C (listen for rhythm).  Played very fast
   6/8
      PM----------------|     PM--|
||------------------------|---------------------|
||o-----------------------|---------------------|
||------------------------|---------------------|
||------------------------|---------------------|
||o-----------------7-8-9-|---7-7-7-------------|
||--6-0-0-0-6-7-8-9-------|-6-----6-------------|
|
|     PM----------------|     PM--|
||------------------------|-----------------6h9-|
||o-----------------------|---------------7-----|
||------------------------|-------------7-------|
||------------------------|-----------8---------|
||o-----------------7-8-9-|---------9-----------|
||--6-0-0-0-6-7-8-9-------|-6-0-0-0-------------|


    PM----------------|
                                                             4x
|-----------------------|-------------9h13--9----------------||
|-----------------------|----------11---------11------------o||
|-----------------------|-------10---------------10----------||
|-----------------------|----11---------------------11-------||
|-----------------7-8-9-|-13---------------------------13---o||
|-6-0-0-0-6-7-8-9-------|------------------------------------||
|
|   PM----------------|
|                                                            4x
|-----------------------|------------------13----------------||
|-----------------------|---------------------14------------o||
|-----------------------|------------------------15----------||
|-----------------------|---------------------------15-------||
|-----------------7-8-9-|------------------------------16---o||
|-6-0-0-0-6-7-8-9-------|------------------------------------||


 3/8
|-12----------------|
|----12-------------|
|-------12----------|
|----------14-------|
|-------------14----|
|-------------------|
|
|-15h19-15----------|
|----------17-------|
|-------------16----|
|-------------------|
|-------------------|
|-------------------|


 Riff A (1:21)

 Verse (1:30)

 Riff B (1:38)

 Riff C (1:47)

 Chorus (1:56)

 Riff D (2:14)
   6/8
                   PM--|                  PM--|
||--12-------------------|-12-------------------|
||o----12----------------|----12----------------|
||--------12-------------|-------12-----------6-|
||-----------14--------8-|----------14------8---|
||o-------------14---8---|-------------14-8-----|
||-----------------6-----|----------------------|
|
|                  PM--|                  PM--|
||--12-------------------|-12-------------------|
||o----12----------------|----12----------------|
||--------12-------------|-------12-----------6-|
||-----------14--------8-|----------14------8---|
||o-------------14---8---|-------------14-8-----|
||-----------------6-----|----------------------|


                 PM--|
|-12-------------------|-12----------------13---------------||
|----12----------------|----12----------14----14-----------o||
|-------12-----------6-|-------12----------------15---------||
|----------14------8---|----------14----------------15------||
|-------------14-8-----|-------------14----------------16--o||
|----------------------|------------------------------------||
|
|                PM--|
|-12-------------------|-12----------------18---------------||
|----12----------------|----12----------18----18-----------o||
|-------12-----------6-|-------12----------------18---------||
|----------14------8---|----------14----------------20------||
|-------------14-8-----|-------------14----------------20--o||
|----------------------|------------------------------------||


 6/8
|-12--------------------|
|----12-----------------|
|-------12--------------|
|----------14-----------|
|-------------14-13-----|
|-----------------------|
|
|----19-----------------|
|-20----20--------------|
|----------21-----------|
|-------------21-20-----|
|-----------------------|
|-----------------------|


 Riff E (2:24): The third guitar has a decent amount of delay.
 3/8     6/8
  Gtr I
|-----||--------------7h|=12--7-------------|-----------------|--------------|
|-----||o-----------8---|--------8----------|-----------------|--------------|
|-----||----------9-----|-----------9-------|-----------------|--------------|
|---8-||--------9-------|--------------9----|-----------------|--------------|
|---6-||o----10---------|----------------10-|-----------------|--------------|
|-----||--12------------|-------------------|-----------------|--------------|
|
| Gtr II
|-----||--------------7S|=19-15-------------|-----------------|--------------|
|-----||o-----------8---|-------17----------|-----------------|--------------|
|-----||----------9-----|----------16-------|-----------------|--------------|
|---8-||--------9-------|-------------17-14-|-----------------|--------------|
|---6-||o----10---------|-------------------|-----------------|--------------|
|-----||--12------------|-------------------|-----------------|--------------|
|
| Gtr III
|                                                               PM  PM|   PM
|-----||----------------|-------------------|-----1-1-1-1-1-1-|---1-----6----|
|-----||o---------------|-------------------|-----------------|--------------|
|-----||----------------|-------------------|-----------------|--------------|
|-----||----------------|-------------------|-----------------|--------------|
|-----||o---------------|-------------------|-----------------|--------------|
|-----||----------------|-------------------|-1---------------|-1---1-6---6--|


|-------------7h|=12--7-------------|----------------------------------|
|-----------8---|--------8----------|----------------------------------|
|---------9-----|-----------9-------|----------------------------------|
|-------9-------|--------------9----|----------------------------------|
|----10---------|----------------10-|----------------------------------|
|-12------------|-------------------|----------------------------------|
|
|-------------7S|=19-15-------------|----------------------------------|
|-----------8---|-------17----------|----------------------------------|
|---------9-----|----------16-------|----------------------------------|
|-------9-------|-------------17-14-|----------------------------------|
|----10---------|-------------------|----------------------------------|
|-12------------|-------------------|----------------------------------|
|
|---------------|-------------------|-------------------18-------------|
|---------------|-------------------|----------------18----18----------|
|---------------|-------------------|-------------18----------18-------|
|---------------|-------------------|----------20----------------20----|
|---------------|-------------------|-------20----------------------20-|
|---------------|----------------15-|-18-18----------------------------|


 1.                                  2.
|----------------------------------||--------------------------|
|---------------------------------o||--------------------------|
|----------------------------------||--------------------------|
|----------------------------------||--------------------------|
|---------------------------------o||--------------------------|
|----------------------------------||--------------------------|
|
|----------------------------------||--------------------------|
|---------------------------------o||--------------------------|
|----------------------------------||--------------------------|
|----------------------------------||--------------------------|
|---------------------------------o||--------------------------|
|----------------------------------||--------------------------|
|
|----------18----------------------||----------18-------19-----|
|-------18----18------------------o||-------18----18-----------|
|----18----------18----------------||----18----------18--------|
|-20----------------20b21.5--(20)--||-20-----------------------|
|---------------------------------o||--------------------------|
|----------------------------------||--------------------------|


 Guitar Solo (2:41): Starts of slow
  Gtr I
                                PM
|------------|-----------------------|---------|--------------------|
|------------|-----------------------|---------|--------------------|
|------------|-----------------------|---------|--------------------|
|--3---------|-(3)-----------------3-|---------|-----------2--------|
|--1---------|-(1)-----------4--1----|--2------|--------2-----2-----|
|------------|-----------------------|--0------|---0-------------3--|
|
| Gtr II
|                               PM
|------------|-----------------------|---------|--------------------|
|------------|-----------------------|---------|--------------------|
|------------|-----------------------|---------|-----------4--------|
|--3---------|-(3)-----------------3-|---------|---2----5-----5--2--|
|--1---------|-(1)-----------4--1----|--2------|--------------------|
|------------|-----------------------|--0------|--------------------|
|
| Gtr IV
|                                       ~~~~~~~~~~~~~~
|-18b20------|-18b20--19b20-19-------|---------|-------19-----------|
|------------|-----------------19-18-|-17------|-(17)-----20--------|
|------------|-----------------------|---------|-------------21-----|
|------------|-----------------------|---------|----------------21--|
|------------|-----------------------|---------|--------------------|
|------------|-----------------------|---------|--------------------|


                                PM
|---------------|-----------------------|
|---------------|-----------------------|
|---------------|-----------------------|
|--3------------|-(3)--------------3----|
|--1------------|-(1)--------4--1-------|
|---------------|-----------------------|
|
|                               PM
|---------------|-----------------------|
|---------------|-----------------------|
|---------------|-----------------------|
|--3------------|-(3)--------------3----|
|--1------------|-(1)--------4--1-------|
|---------------|-----------------------|
|
|  ~~~~~~~~~~
|---------------|-----------------------|
|------------18-|-19--16-18----16-------|
|---------------|-----------18----18p17-|
|-20----(20)----|-----------------------|
|---------------|-----------------------|
|---------------|-----------------------|


                                  ~~
|-------------------|-------------------------------|
|-------------------|-------------------------------|
|-------------------|-------------------------------|
|-------------------|-------------------------------|
|--2----------------|----------2--------------------|
|--0----------------|--0----3-----3-----------------|
|
|                                 ~~
|-------------------|-------------------------------|
|-------------------|-------------------------------|
|-------------------|-------------------------------|
|-------------------|-------2--5--2-----------------|
|--2----------------|-------------------------------|
|--0----------------|--0----------------------------|
|
|----------19-------|---------------19--------------|
|-------20----20----|------------20----20-----------|
|----21----------21-|---------21----------21--------|
|-21----------------|-21b22r=================21-----|
|-------------------|---------------------------22--|
|-------------------|-------------------------------|


                                             PM
|----------------------------|--------------------|
|----------------------------|--------------------|
|----------------------------|--------------------|
|--3-------------------------|-(3)--------------3-|
|--1-------------------------|-(1)--------4--1----|
|----------------------------|--------------------|
|
|                                            PM
|----------------------------|--------------------|
|----------------------------|--------------------|
|----------------------------|--------------------|
|--3-------------------------|-(3)--------------3-|
|--1-------------------------|-(1)--------4--1----|
|----------------------------|--------------------|
|
|                 ~~~~~~~
|-21-------------------------|--------------------|
|----23----------------------|--------------------|
|-------22-------------------|-----18-------------|
|----------20----------------|-20-----20----20----|
|-------------20----------20-|-----------20----20-|
|----------------18-(18)-----|--------------------|


|---------------------|----------------------------|
|---------------------|----------------------------|
|---------------------|----------------------------|
|---------------------|--------------------2-------|
|--2------------------|-----------------2-----2----|
|--0------------------|--0--------3--------------3-|
|
|---------------------|----------------------------|
|---------------------|----------------------------|
|---------------------|--------------------4-------|
|---------------------|-----------2-----5-----5--2-|
|--2------------------|----------------------------|
|--0------------------|--4-------------------------|
|
|  ~~
|---------------------|-19-------------------------|
|---------------18-20-|----20-------------------17-|
|------------18-------|-------21-------------16----|
|---------17----------|----------21-------17-------|
|-19---19-------------|-------------22p19----------|
|---------------------|----------------------------|


                             PM
|---------------|----------------|
|---------------|----------------|
|---------------|----------------|
|--3------------|-(3)----------3-|
|--1------------|-(1)------4-1---|
|---------------|----------------|
|
|                            PM
|---------------|----------------|
|---------------|----------------|
|---------------|----------------|
|--3------------|-(3)----------3-|
|--1------------|-(1)------4-1---|
|---------------|----------------|
|
|  ~~~~~~~~~~
|---------------|----------------|
|-18----(18)-14-|-18tr14---------|
|---------------|----------------|
|---------------|----------------|
|---------------|----------------|
|---------------|----------------|


                                         PM---|
|-------------------------------------|---------------|
|-------------------------------------|---------------|
|-------------------------------------|---------------|
|-------------------------------------|--------4------|
|--2----------------------------------|--2--5--2--1---|
|--0----------------------------------|--0--3--2------|
|
|                                        PM---|
|-------------------------------------|---------------|
|-------------------------------------|---------------|
|-------------------------------------|---------------|
|-------------------------------------|--------4--3---|
|--2----------------------------------|--2--5--2--1---|
|--0----------------------------------|--0--3--2------|
|
|-19----------------19----------------|---------------|
|----20----------20----20-------------|---------------|
|-------21----21----------21----------|-------21------|
|----------21----------------21-------|----21----20---|
|-------------------------------22-19-|-22------------|
|-------------------------------------|---------------|


 The solo picks up here:

  Gtrs I, II
   PM------|                                          PM---------|
|-------------------------------------|-----------------------------|
|-------------------------------------|-----------------------------|
|-------------------------------------|-----------------------------|
|--------------3----------------------|-(3)--------------------3--2-|
|--1--1--1--1--1----------------------|-(1)-----------1-----4-------|
|-------------------------------------|-----------------------------|
|
| Gtr IV
|        T                 T
|-13h14-18p14p13h14p13h14-18p14p13h14-|-21--18-20p18-21-18-20-18----|
|-------------------------------------|--------------------------18-|
|-------------------------------------|-----------------------------|
|-------------------------------------|-----------------------------|
|-------------------------------------|-----------------------------|
|-------------------------------------|-----------------------------|


                                               PM--------------|
|-------------------------------------|----------------------------|
|-------------------------------------|----------------------------|
|-------------------------------------|----------------------------|
|-------------------------------------|----------------------2-5---|
|--2----------------------------------|-(2)----------------2-------|
|--0----------------------------------|-(0)----0--0--3-------------|
|
|        T                 T                   T           ~~
|-12h15-19p15p12h15p12h15-19p15p12h15p|=12h15-19p15p12h13----------|
|-------------------------------------|-------------------12-------|
|-------------------------------------|----------------------------|
|-------------------------------------|----------------------------|
|-------------------------------------|----------------------------|
|-------------------------------------|----------------------------|


   PM------|                                          PM---------------|
|-------------------------------------|--------------------------------------|
|-------------------------------------|--------------------------------------|
|-------------------------------------|--------------------------------------|
|--------------3----------------------|-(3)-----------------------3-----2----|
|--1--1--1--1--1----------------------|-(1)-----------1-----4----------------|
|-------------------------------------|--------------------------------------|
|
|-------------------------------------|--------------------------------------|
|----------16-18-19-18-16-------------|-----16-18-19-18-16----------------16-|
|-15-17-18----------------18-17-15-17-|-18-----------------18-17-15-17-18----|
|-------------------------------------|--------------------------------------|
|-------------------------------------|--------------------------------------|
|-------------------------------------|--------------------------------------|


                                                PM---------------------|
|-------------------------------------|----------------------------------------|
|-------------------------------------|----------------------------------------|
|-------------------------------------|----------------------------------------|
|-------------------------------------|---------------------------2-----5------|
|--2----------------------------------|-(2)-----------------2------------------|
|--0----------------------------------|-(0)-----0--0--3------------------------|
|
|-------------------------------------|----------------------------------------|
|-17----------------------------------|----------------------------------------|
|----17-16-14-16-17-16-14-------------|-----------14-16-17-16-14---------------|
|-------------------------17-19-16-17-|-14--16-17----------------17-19-16-17---|
|-------------------------------------|----------------------------------------|
|-------------------------------------|----------------------------------------|


   PM------|                                           PM---------------|
|--------------------------------------|--------------------------------------|
|--------------------------------------|--------------------------------------|
|--------------------------------------|--------------------------------------|
|--------------3-----------------------|-(3)-----------------------3-----2----|
|--1--1--1--1--1-----------------------|-(1)-----------1-----4----------------|
|--------------------------------------|--------------------------------------|
|
|-------------------------/21-------21-|--------------------------------------|
|----------------19-17-18-----21-23----|-23--21-20-21----20-------21----------|
|----------15-16-----------------------|--------------22----21-22----22-21----|
|-15-17-18-----------------------------|-----------------------------------23-|
|--------------------------------------|--------------------------------------|
|--------------------------------------|--------------------------------------|


                                                PM--------------------|
|-------------------------------------|----------------------------------|
|-------------------------------------|----------------------------------|
|-------------------------------------|----------------------------------|
|-------------------------------------|----------------------------2--5--|
|--2----------------------------------|-(2)-----------------2------------|
|--0----------------------------------|-(0)-----0--0--3------------------|
|
|                                                              ~~~~~~~
|-------------19----------------22----|--------------19------------------|
|----------20----20----------20----20-|-----------20----20---------------|
|-------21----------21----------------|-21-----21----------21------------|
|-21h22----------------21-22----------|-----21----------------21-(21)----|
|-------------------------------------|----------------------------------|
|-------------------------------------|----------------------------------|


   PM------|                                          PM---------------|
|-------------------------------------|--------------------------------------|
|-------------------------------------|--------------------------------------|
|-------------------------------------|--------------------------------------|
|--------------3----------------------|-(3)-----------------------3-----2----|
|--1--1--1--1--1----------------------|-(1)-----------1-----4----------------|
|-------------------------------------|--------------------------------------|
|
|-20-18-16-------------16-------------|--------------------------------------|
|----------20-18-17-18----18-17-------|--------------------------------------|
|-------------------------------18-17-|-15--17-18-17-15----------------------|
|-------------------------------------|-----------------18-17-15-17-18-17-15-|
|-------------------------------------|--------------------------------------|
|-------------------------------------|--------------------------------------|


                                   PM---------------------|
|------------------------|----------------------------------------|
|------------------------|----------------------------------------|
|------------------------|----------------------------------------|
|------------------------|---------------------------2-----5------|
|--2---------------------|-(2)-----------------2------------------|
|--0---------------------|-(0)-----0--0--3------------------------|
|
|                    ~~
|------------------------|-----------17-19-20-19-17-19-20-19-17---|
|------------------------|-17--19-20------------------------------|
|----------14-16-17-16---|----------------------------------------|
|-14-16-17---------------|----------------------------------------|
|------------------------|----------------------------------------|
|------------------------|----------------------------------------|


 Return to first part of solo in terms of tempo and motif

                                PM                            PM-----------|
|------------|-----------------------|----------------|-----------------------|
|------------|-----------------------|----------------|-----------------------|
|------------|-----------------------|----------------|-----------------------|
|--3---------|-(3)-----------------3-|----------------|------------------2--5-|
|--1---------|-(1)-----------4--1----|--2-------------|--(2)----------2-------|
|------------|-----------------------|--0-------------|--(0)--0-0--3----------|
|
|                                       ~~~~~~~~~~~~~~~~~~~~~
|-18b20------|-18b20--19b20-19-------|----------------|------19---------------|
|------------|-----------------19-18-|-17----(17)b19r=|=(17)------20----------|
|------------|-----------------------|----------------|--------------21----21-|
|------------|-----------------------|----------------|-----------------21----|
|------------|-----------------------|----------------|-----------------------|
|------------|-----------------------|----------------|-----------------------|


  Gtr I
   PM-----|                       PM---------------------|
|-----------------------|--------------------------------------|
|-----------------------|--------------------------------------|
|-----------------------|--------------------------------------|
|------------3----------|-(3)--------------------3--------2----|
|--1-1--1-1--1----------|-(1)-----1-----4----------------------|
|-----------------------|--------------------------------------|
|
| Gtr II
|  PM-----|                       PM---------------------|
|-----------------------|--------------------------------------|
|-----------------------|--------------------------------------|
|-----------------------|--------------------------------------|
|------------3----------|-(3)--------------------3--------2----|
|--1-1--1-1--1----------|-(1)-----1-----4----------------------|
|-----------------------|--------------------------------------|
|
| Gtr IV
|                                       T        T        T
|-----------------------|--------------------------------------|
|-----------19----------|--------------21p18p13-21p18p13-21p18-|
|------22------20-22-18-|-20-----18----------------------------|
|-20--------------------|-----22----22-------------------------|
|-----------------------|--------------------------------------|
|-----------------------|--------------------------------------|


                                 ~
|-------------------|-----------------------|
|-------------------|-----------------------|
|-------------------|-----------------------|
|-------------------|-----------------------|
|--2----------------|----------2------------|
|--0----------------|--0----3----3----------|
|
|                                ~
|-------------------|-----------------------|
|-------------------|-----------------------|
|-------------------|-----------------------|
|-------------------|-------2--5-2----------|
|--2----------------|--2--------------------|
|--0----------------|-----------------------|
|
|----------19-------|-----------------------|
|-------20----20----|-----------------------|
|----21----------21-|---------21---(21)b23--|
|-21----------------|-21b22r================|
|-------------------|-----------------------|
|-------------------|-----------------------|


  Gtrs I, II
                                                               PM
|-------------------------------------|-----------------------------|
|-------------------------------------|-----------------------------|
|-------------------------------------|-----------------------------|
|--3----------------------------------|-(3)-----------------------3-|
|--1----------------------------------|-(1)-----------------4--1----|
|-------------------------------------|-----------------------------|
|
| Gtr IV
|-21----------------21----------------|-21-----------------21-------|
|----23----23----23----23----23----23-|-----23----23----23----23----|
|-------22----22----------22----22----|--------22----22----------22-|
|-------------------------------------|-----------------------------|
|-------------------------------------|-----------------------------|
|-------------------------------------|-----------------------------|


                           PM----------|
|-------------------|--------------------|
|-------------------|--------------------|
|-------------------|--------------------|
|-------------------|----------------2-5-|
|--2----------------|-(2)----------2-----|
|--0----------------|-(0)--0-0--3--------|
|
|                                  ~~
|----19----------19-|----------19--------|
|-------20----------|-20-----------------|
|-21-------21-------|-----21-------------|
|-------------21----|-------------21-----|
|-------------------|--------------------|
|-------------------|--------------------|


  Gtr I
   PM------|
|-------------------------------------|
|-------------------------------------|
|-------------------------------------|
|--------------3----------------------|
|--1--1--1--1--1----------------------|
|-------------------------------------|
|
| Gtr II
|  PM------|
|-------------------------------------|
|-------------------------------------|
|-------------------------------------|
|--------------3----------------------|
|--1--1--1--1--1----------------------|
|-------------------------------------|
|
| Gtr IV
|-------------------------------------|
|----------16-18-19-18-16-------------|
|-15-17-18----------------18-17-15-17-|
|-------------------------------------|
|-------------------------------------|
|-------------------------------------|


                PM---------------|                  PM--|
|--------------------------------------|---------|------------|
|--------------------------------------|---------|------------|
|--------------------------------------|---------|------------|
|-(3)-----------------------3-----2----|---------|------4-----|
|-(1)-----------1-----4----------------|-2-------|--2-5-2-1---|
|--------------------------------------|-0-------|--0-3-2-----|
|
|               PM---------------|                  PM----|
|--------------------------------------|---------|------------|
|--------------------------------------|---------|------------|
|--------------------------------------|---------|------------|
|-(3)-----------------------3-----2----|---------|------4-3---|
|-(1)-----------1-----4----------------|-2-------|--2-5-2-1---|
|--------------------------------------|-0-------|--0-3-2-----|
|
|                                        \7         /
|--------------------------------------|---------|-24---------|
|-----16-18-19-18-16-------------------|---------|------------|
|-18-----------------18-17p15h17p15h17p|=0-------|------------|
|--------------------------------------|---------|------------|
|--------------------------------------|---------|------------|
|--------------------------------------|---------|------------|

 End of solo

 Riff E (3:33)

 Riff A (3:50)

 Verse (3:59)

 Riff B (4:07)

 Riff C (4:16)

 Chorus (4:25)

 Riff D (4:43)

 Outro (4:52)
 6/8
  PM--|         PM--|         PM--|          PM--| ~
|-------------|-------------|-------------|------------|
|-------------|-----6-5-----|-------------|------6-5---|
|-----4-6-----|---6-----4---|-----4-6-----|----6-------|
|---5-----8---|-8---------5-|---5-----8---|--8---------|
|-7---------8-|-------------|-7---------8-|------------|
|-------------|-------------|-------------|------------|
|
| PM--|         PM--|         PM--|                ~
|-------------|-------------|-------------|------9-8---|
|-------------|-----6-5-----|-------------|------------|
|-----4-6-----|---6-----4---|-----4-6-----|-10---------|
|---5-----8---|-8---------5-|---5-----8---|----8-------|
|-7---------8-|-------------|-7---------8-|------------|
|-------------|-------------|-------------|------------|


 6/8
  PM--|             PM---|
|----------------|---------------|
|----------------|-------6-5-----|
|-----4--6-------|-----6-----4---|
|---5-------8----|--8----------5-|
|-7------------8-|---------------|
|----------------|---------------|
|
| PM--|
|----------------|-------9-7-----|
|-----8-12-------|----11-----8---|
|---9------10----|-10----------9-|
|-9-----------11-|---------------|
|----------------|---------------|
|----------------|---------------|


  PM--|             PM---|
|----------------|-------------7----|---------*|
|----------------|-------6--5-----7-|--6------*|
|-----4--6-------|-----6------------|---------*|
|---5-------8----|--8---------------|---------*|
|-7------------8-|------------------|---------*|
|----------------|------------------|---------*|
|
| PM--|
|----------------|-------9----15----|---------*|
|-----8-12-------|----11---12----14-|-13------*|
|---9------10----|-10---------------|---------*|
|-9-----------11-|------------------|---------*|
|----------------|------------------|---------*|
|----------------|------------------|---------*|



 Advanced Corpse Tumor----------------------------------------------------

Q=240
 4/4
  Gtr I
     PM-----------------------------------|
|-------------|-----------------|-------------------|
|-------------|-----------------|-----------8h11S14-|
|-------------|-----------------|-------6-9---------|
|-3--2--6--5--|---------------5-|---5-6-------------|
|-1--4--8--7--|---7-----1-4-3---|-1-----------------|
|----0--------|-4---3-1---------|-------------------|
|
| Gtr II
|    PM-------------------------------------|
|-------------|-----------------|-------------------|
|-------------|-----------------|--------------8h11-|
|-------------|-----------------|-------6-9-9-------|
|-3--2--6--5--|---------------5-|---5-6-------------|
|-1--4--8--7--|---7-----1-4-5---|-1-----------------|
|----0--------|-4---3-1---------|-------------------|


 4/4                                 3/4
  PM------|   PM----|     PM|   PM------------|
|-----------------|-----------------|-------------|
|-----------------|-----------------|-------------|
|-----------------|-----------------|-------------|
|-----------5-----|---6-5-2---6-----|-----------5-|
|-------------4-3-|-1-------4-------|-------3-4---|
|-6-0-5-3-3-------|-------------4-0-|-3-1-3-------|
|
| PM----|     PM----|     PM|   PM------------|
|-----------------|-----------------|-------------|
|-----------------|-------2---5-----|-------------|
|-----------------|---------3-------|-------------|
|-----------5-----|---3-2-----------|-----------5-|
|-------------4-3-|-1---------------|-------3-4---|
|-6-0-5-3-3-------|-------------4-0-|-3-1-3-------|


 4/4
  PM------|   PM|          T            T
|-----------------|---------------------------|
|-----------------|---------------------------|
|-----------------|-0h6h9-12p9p6-0h6h9-12p9p6-|
|-----------5-----|---------------------------|
|-------------4-3-|---------------------------|
|-6-0-5-3-3-------|---------------------------|
|
| PM------|   PM|          T            T
|-----------------|-0h6h9-12p9p6-0h6h9-12p9p6-|
|-----------------|---------------------------|
|-----------------|---------------------------|
|-----------5-----|---------------------------|
|-------------4-3-|---------------------------|
|-6-0-5-3-3-------|---------------------------|


 3/4        4/4
  PM-------------------------------|
|----------|-------------------------|
|----------|-------------------------|
|----------|-------------------------|
|-2--6--5--|-------------------------|
|-4--8--7--|-------------------------|
|----------|-0-0-0-0-0-0-0-0-0-0-0-0-|
|
| PM-------------------------------|
|----------|-------------------------|
|----------|-------------------------|
|----------|-------------------------|
|-2--6--5--|-------------------------|
|-4--8--7--|-------------------------|
|----------|-0-0-0-0-0-0-0-0-0-0-0-0-|


                      11/8
      PM----|          PM-------------------------|
|--------------------|--------------------------------|
|--------------------|--------------------------------|
|--5-----------5--4--|--------------------------------|
|--6-----------6--5--|--------------------------5--6--|
|--8-----------8--7--|---------------------4--7-------|
|-----0-0-0-0--------|-4-4-4-0-0-0-1-1-1-0------------|
|
|     PM----|          PM-------------------------|
|--------------------|--------------------------------|
|--9-----------9--8--|--------------------------------|
|-10----------10--9--|--------------------------------|
|-10----------10--9--|--------------------------8-10--|
|--------------------|---------------------7-10-------|
|-----0-0-0-0--------|-4-4-4-0-0-0-1-1-1-0------------|


 4/4
  PM--------------------|      PM--|    PM--
|-------------------------|----------------|
|-------------------------|----------------|
|-------------------------|----------------|
|-------------------------|----------------|
|-------------------------|-8--4-4-4-8--7--|
|-6-6-6-0-0-0-2-2-2-0-0-0-|-6--------------|
|
| PM--------------------|      PM--|    PM--
|-------------------------|----------------|
|-------------------------|----------------|
|-------------------------|----------------|
|-------------------------|-3--2-2-2-6--2--|
|-------------------------|-1--------------|
|-6-6-6-0-0-0-2-2-2-0-0-0-|----------------|


 -----------------------|      PM----|
|-------------------------|---------------|
|-------------------------|---------------|
|-------------------------|---------------|
|-------------------------|----2--6--5----|
|-------------7-7-7-7-7-7-|-8--4--8--7----|
|-0-0-0-0-0-0-------------|-6-------------|
|
|-----------------------|      PM----|
|-------------------------|---------------|
|-------------------------|---------------|
|-------------------------|---------------|
|-------------------------|----2--6--5----|
|-------------7-7-7-7-7-7-|-8--4--8--7----|
|-0-0-0-0-0-0-------------|-6-------------|


 4/4
  Gtr I
                                  PM--|
|-----------------|-----------------|-----------|
|-----------------|-----8-----------|-----------|
|-----------------|-----------9-----|------5----|
|---------------5-|-2S5---5-----8---|------6----|
|-----------3-4---|---------7-------|------8----|
|-4-0-3-1-3-------|---------------0-|-0---------|
|
| Gtr II
|                                 PM--|
|-----------------|-----------------|-----------|
|-----------------|-----------------|-----------|
|-----------------|-----9-----6-----|------5----|
|---------------5-|-------------5---|------6----|
|-----------3-4---|-4S7---7-------4-|-4---------|
|-4-0-3-1-3-------|---------9-----0-|-0---------|


 3/4
         T     PM---|             T                      T
|-----------------|--------------------|--------------------|
|-----------------|---------5h=8-11--8p|==5--------5h=8-14--|
|-0h6h9-12p9p6----|--------------------|----6---------------|
|-----------------|----5h8-------------|------5h8-----------|
|--------------4--|-3------------------|--------------------|
|--------------1--|-0------------------|--------------------|
|
|        T     PM---|
|-0h6h9-12p9p6----|--------------------|----------------12--|
|-----------------|-----------11h14p11-|-------------11-----|
|-----------------|----0h9h12----------|-12p9-0h9h12--------|
|--------------6--|-5------------------|--------------------|
|--------------8--|-7------------------|--------------------|
|-----------------|--------------------|--------------------|


 4/4
|-------------------------|-------------------------|
|-------------------------|-------------------------|
|-------------------------|-------------------------|
|-------------------------|-----------------------2-|
|-------------------------|-------------------3h4---|
|-1-1-1-1-1-1-1-1-1-0-0-0-|-1-1-1-3-3-3-0-1-3-------|
|
|-------------------------|-------------------------|
|-------------------------|-------------------------|
|-------------------------|-------------------------|
|-------------------------|-----------------------2-|
|-------------------------|-------------------3h4---|
|-1-1-1-1-1-1-1-1-1-0-0-0-|-1-1-1-3-3-3-0-1-3-------|


                        6/8
|----------------------|-------------|
|----------------------|-------------|
|----------------------|-----------6-|
|----------------------|-------3-5---|
|----------------------|---4-7-------|
|-1-1-1-3-3-3-0-0-0-4--|-4-----------|
|
|----------------------|-------------|
|-------------------5--|-------------|
|----------------------|-----------9-|
|----------------------|-------6-8---|
|----------------------|-7-4-8-------|
|-1-1-1-3-3-3-0-0-0----|-------------|


 4/4
|-------------------------|-------------------------|
|-------------------------|-------------------------|
|-------------------------|-------------------------|
|-------------------------|-----------------------2-|
|-------------------------|-------3-3-3-------3h4---|
|-1-1-1-1-1-1-1-1-1-0-0-0-|-1-1-1-------0-1-3-------|
|
|-------------------------|-------------------------|
|-------------------------|-------------------------|
|-------------------------|-------------------------|
|-------------------------|-------2-2-2-----------2-|
|-------------------------|-------------------3h4---|
|-1-1-1-1-1-1-1-1-1-0-0-0-|-1-1-1-------0-1-3-------|


                        3/4
                                 T
|----------------------|----------------------------|
|----------------------|----------------------------|
|----------------------|-0h6h=9-12p=9p6--9b9.5r=0---|
|----------------------|----------------------------|
|----------------------|----------------------------|
|-3-3-3-0-0-0-1-1-1-4--|----------------------------|
|
|----------------------|----------------------------|
|-------------------5--|----------------------------|
|----------------------|-0-9-12-15-12-9-12b12.5r0---|
|----------------------|----------------------------|
|----------------------|----------------------------|
|-3-3-3-0-0-0-1-1-1----|----------------------------|


 4/4
|-------------------------|-------------------------|
|-------------------------|-------------------------|
|-------------------------|-------------------------|
|-------------------------|-----------------------2-|
|-------------------------|-------------------3h4---|
|-1-1-1-1-1-1-1-1-1-0-0-0-|-1-1-1-3-3-3-0-1-3-------|
|
|-------------------------|-------------------------|
|-------------------------|-------------------------|
|-------------------------|-------------------------|
|-------------------------|-----------------------2-|
|-------------------------|-------------------3h4---|
|-1-1-1-1-1-1-1-1-1-0-0-0-|-1-1-1-3-3-3-0-1-3-------|


                        6/8
|----------------------|-------------|
|----------------------|-------------|
|----------------------|-----------6-|
|----------------------|-------3-5---|
|----------------------|---4-7-------|
|-1-1-1-3-3-3-0-0-0-4--|-4-----------|
|
|----------------------|-------------|
|-------------------5--|-------------|
|----------------------|-----------9-|
|----------------------|-------6-8---|
|----------------------|-7-4-8-------|
|-1-1-1-3-3-3-0-0-0----|-------------|


 4/4
|-------------------------|-------------------------|-----------------------|
|-------------------------|-------------------------|-----------------------|
|-------------------------|-------------------------|-----------------------|
|-------------------------|-----------------------2-|-----------------------|
|-------------------------|-------3-3-3-------3h4---|-----------------------|
|-1-1-1-1-1-1-1-1-1-0-0-0-|-1-1-1-------0-1-3-------|-3-3-3-0-0-0-1-1-1-4---|
|
|-------------------------|-------------------------|-----------------------|
|-------------------------|-------------------------|-------------------5---|
|-------------------------|-------------------------|-----------------------|
|-------------------------|-------2-2-2-----------2-|-----------------------|
|-------------------------|-------------------3h4---|-----------------------|
|-1-1-1-1-1-1-1-1-1-0-0-0-|-1-1-1-------0-1-3-------|-3-3-3-0-0-0-1-1-1-----|


 3/4             4/4
                                                   T
|-------------||------------------|----------------------|-----------------|
|-------------||o-----------------|----------------------|-----------------|
|-------------||------------------|----------------------|-----------------|
|---6p5-----5-||--------4-------4-|---5------------------|-------6---5-----|
|-0-----3-4---||o-2-1-4---2-1-4---|-3---4-3--------------|-------------4-3-|
|-------------||--0-------0-------|-0-------0h6h9-12p9p6-|-3-4-6---3-------|
|
|                                                  T
|-------------||------------------|----------------------|-----------------|
|-----------5-||o-----------------|---------0h2h5--8p5p2-|-----------------|
|-------6-3---||------------------|----------------------|-----------------|
|---3p2-------||--------4-------4-|---5------------------|-----------5-----|
|-0-----------||o-2-1-4---2-1-4---|-3---4-3--------------|-------3-----4-3-|
|-------------||--0-------0-------|-0--------------------|-1-3-4---3-------|


 3/4        4/4
                                              T
|----------|-----------------|----------------------|-----------------|
|----------|-----------------|----------------------|-----------------|
|----------|-----------------|----------------------|-----------------|
|-2--6--5--|-------4-------4-|---5------------------|---6-------5-----|
|-4--8--7--|-2-1-4---2-1-4---|-3---4-3--------------|-------------4-3-|
|-0--------|-0-------0-------|-0-------0h6h9-12p9p6-|-4---6-4-3-------|
|
|                                             T
|----------|-----------------|----------------------|-----------------|
|----------|-----------------|---------0h2h5--8p5p2-|-----------------|
|----------|-----------------|----------------------|-----------------|
|-2--6--5--|-------4-------4-|---5------------------|---3-5-2---5-----|
|-4--8--7--|-2-1-4---2-1-4---|-3---4-3--------------|-------------4-3-|
|-0--------|-0-------0-------|-0--------------------|-1-------3-------|


 3/4        2/4         4/4
                    T                     T                     T
|----------|-----------|---------------------|---------------------|
|----------|-----------|---------------------|---------------------|
|----------|-----------|---------------------|-----------0h6h9-12--|
|-2--6--5--|-----------|---------------------|---------------------|
|-4--8--7--|-----------|-11-7-10-8-----------|-4-5--7--8-----------|
|-0--------|-0h6h9-12--|-----------0h6h9-12--|---------------------|
|
|                   T                     T                     T
|----------|-----------|---------------------|---------------------|
|----------|-----------|---------------------|---------------------|
|----------|-----------|---------------------|-----------0h6h9-12--|
|-2--6--5--|-----------|---------------------|---------------------|
|-4--8--7--|-----------|-11-7-10-8-----------|-7-8-10-11-----------|
|-0--------|-0h6h9-12--|-----------0h6h9-12--|---------------------|


                 3/4              4/4                  3/4
|---------------|----------------|--------------------|-------------------|
|---------------|---2-[5]-[6]----|---------[5]-[6]----|---------[6]S=[9]--|
|---------------|-3--------------|-1---0--------------|-------------------|
|-2---------2-5-|-------------3--|---2---3---------2--|-6-----------------|
|-4--4----------|-------------1--|-----------------4--|---5-7-8-----------|
|----1--0-0-----|-------------1--|-----------------0--|-------------------|
|
|---------------|----------------|--------------------|-------------------|
|---------------|---2-[5]-[6]----|---------[5]-[6]----|---------[9]S[12]--|
|---------------|-3--------------|-1---0--------------|-------------------|
|-2-----------5-|-------------3--|---2---3---------2--|-2-3-5-6-----------|
|-4--4----1-----|-------------1--|-----------------4--|-------------------|
|----1--0---0---|-------------1--|-----------------0--|-------------------|


                          1.
 3/4        3/4
|----------|-------------|-6------------||
|----------|-----------5-|---5---6-5---o||
|----------|---------6---|-----3-----3--||
|-2--5--2--|-----5-8-----|--------------||
|-4--7--4--|-------------|-------------o||
|-0--------|-0-0---------|--------------||
|
|----------|-------------|--------------||
|----------|-------------|-8-----------o||
|----------|-----------6-|---6---6-6----||
|-2--5--2--|---------5---|-----5-----5--||
|-4--7--4--|-----4-7-----|-------------o||
|-0--------|-0-6---------|--------------||


  2.
 4/4
         T            T              T                 T            T
|---------------------------|-----------------------|------------------------|
|---------------------------|-----------------------|------------------------|
|--------------0h6h9-12p9p6-|-----------------0h6h9-|-12p9p6-----------------|
|---------------------------|--------------2--------|------------------------|
|---------------------------|--------------4--------|---------------------4--|
|-0h6h9-12p9p6--------------|-0h6h9-12p9p6----------|--------0h6h9-12p9p6-0--|
|
|                                                      T            T
|---------------------------|-----------------0h6h9-|-12p9p6-----------------|
|---------------------------|-----------------------|------------------------|
|---------------------------|-----------------------|--------0h6h9-12p9p6----|
|---------------------------|-----------------------|---------------------6--|
|---------------------------|--------------4--------|---------------------8--|
|---------------------------|--------------0--------|------------------------|


           ~           T            T              T
|-------------|---------------------------|-----------------------|
|-------------|---------------------------|-----------------------|
|-------------|--------------0h6h9-12p9p6-|-0h6h9-12p9p6----0h6h9-|
|-------------|---------------------------|--------------2--------|
|-3--3--4--4--|---------------------------|--------------4--------|
|-0--0--0-----|-0h6h9-12p9p6--------------|-----------------------|
|
|          ~           T            T              T
|-------------|---------------------------|-0h6h9-12p9p6----0h6h9-|
|-------------|---------------------------|-----------------------|
|----------6--|-0h6h9-12p9p6-0h6h9-12p9p6-|-----------------------|
|-5--5--6--5--|---------------------------|-----------------------|
|-7--7--8-----|---------------------------|--------------4--------|
|-------------|---------------------------|--------------0--------|


   T            T                   ~
|------------------------|-------------|
|------------------------|-------------|
|-12p9p6-----------------|-------------|
|------------------------|-------------|
|---------------------4--|-3--3--4--4--|
|--------0h6h9-12p9p6-0--|-0--0--0-----|
|
|  T            T                   ~
|-12p9p6-----------------|-------------|
|------------------------|-------------|
|--------0h6h9-12p9p6----|----------6--|
|---------------------6--|-5--5--6--5--|
|---------------------8--|-7--7--8-----|
|------------------------|-------------|


         T            T              T
|---------------------------|-----------------------|
|---------------------------|-----------------------|
|--------------0h6h9-12p9p6-|-----------------0h6h9-|
|---------------------------|--------------2--------|
|---------------------------|--------------4--------|
|-0h6h9-12p9p6--------------|-0h6h9-12p9p6----------|
|
|        T            T              T
|--------------0h6h9-12p9p6-|-----------------0h6h9-|
|---------------------------|-----------------------|
|-0h6h9-12p9p6--------------|-0h6h9-12p9p6----------|
|---------------------------|-----------------------|
|---------------------------|--------------4--------|
|---------------------------|--------------0--------|


   T            T                   ~
|------------------------|-------------|
|------------------------|-------------|
|-12p9p6-----------------|-------------|
|------------------------|-------------|
|---------------------4--|-3--3--4--4--|
|--------0h6h9-12p9p6-0--|-0--0--0-----|
|
|  T            T                   ~
|-12p9p6-----------------|-------------|
|------------------------|-------------|
|--------0h6h9-12p9p6----|----------6--|
|---------------------6--|-5--5--6--5--|
|---------------------8--|-7--7--8-----|
|------------------------|-------------|


         T            T              T
|---------------------------|-----------------------|
|---------------------------|-----------------------|
|-0h6h9-12p9p6--------------|-0h6h9-12p9p6----0h6h9-|
|---------------------------|--------------2--------|
|---------------------------|--------------4--------|
|--------------0h6h9-12p9p6-|-----------------------|
|
|        T            T              T
|---------------------------|-0h6h9-12p9p6----0h6h9-|
|---------------------------|-----------------------|
|-0h6h9-12p9p6-0h6h9-12p9p6-|-----------------------|
|---------------------------|-----------------------|
|---------------------------|--------------4--------|
|---------------------------|--------------0--------|


   T            T                   ~
|------------------------|-------------|
|------------------------|-------------|
|-12p9p6-----------------|-------------|
|------------------------|-------------|
|---------------------4--|-3--3--4--4--|
|--------0h6h9-12p9p6-0--|-0--0--0-----|
|
|  T            T                   ~
|-12p9p6-----------------|-------------|
|------------------------|-------------|
|--------0h6h9-12p9p6----|----------6--|
|---------------------6--|-5--5--6--5--|
|---------------------8--|-7--7--8-----|
|------------------------|-------------|


                          3/4
         T                           T
|------------------------|-----------------|
|------------------------|-----------------|
|------------------------|----0h6h9-12p9p6-|
|------------------------|-----------------|
|---------------7--------|-4---------------|
|-0h6h9-12p9p6----4-6--0-|-----------------|
|
|        T                           T
|--------------12--------|----0h6h9-12p9p6-|
|-----------------9-9-11-|-----------------|
|-0h6h9-12p9p6-----------|-9---------------|
|------------------------|-----------------|
|------------------------|-----------------|
|------------------------|-----------------|


||--------------|-------------|---------------|-------------3--||-6-----------|
||o-------------|-------------|---------------|--------2-5----o||---5---6-5---|
||--------------|-------------|---------------|-----3----------||-----3-----3-|
||--------------|-------------|-[9]-----------|-2-5------------||-------------|
||o-----7-4-7-8-|-----7-4-7-8-|-----4-7-4-7-8-|---------------o||-------------|
||--0-6---------|-0-6---------|---------------|----------------||-------------|
|
||--------------|-------------|---------------|----------------||-------------|
||o-------------|-------------|---------------|---------------o||-8-----------|
||--------------|-------------|-[4]S5---------|----------------||---6---6-6---|
||--------------|-------------|---------------|----------8-11--||-----5-----5-|
||o-----7-4-7-8-|-----7-4-7-8-|-----------7-8-|-----7-10------o||-------------|
||--0-6---------|-0-6---------|-------0-6-----|-6-9------------||-------------|


 4/4
                                                                           ~
|-----------------|----------------------|----------------------|--------------|
|-----------------|----------------------|----------------------|--------------|
|-----------------|-------------[7]h=[8]-|----------------------|--------------|
|-----------------|----------------------|-[9]h[10]-------------|-2--------3---|
|-----7-8---1-3-4-|-----7-8-7-8----------|----------7-4-7-8-3-4-|-4--1--2------|
|-0-6-----0-------|-0-6------------------|----------------------|-------0------|
|
|                                                                 PM----|  ~
|-----------------|----------------------|----------------------|--------------|
|-----------------|----------------------|----------------------|--------------|
|-----------------|----------------------|----------------------|--------------|
|-----------------|-------------[9]h[10]-|-[9]h[10]-------------|-2--------3---|
|-----7-8---1-3-4-|-----7-8-7-8----------|----------7-4-7-8-3-4-|-4--4--2------|
|-0-6-----0-------|-0-6------------------|----------------------|----0--0------|


                                                                  PM----|  ~
|-----------------|----------------------|----------------------|-------------|
|-----------------|----------------------|----------------------|-------------|
|-----------------|-------------[7]h=[8]-|----------------------|----------5--|
|-----------------|----------------------|-[9]h[10]-------------|-2--------3--|
|-----7-8---1-3-4-|-----7-8-7-8----------|----------7-4-7-8-3-4-|-4--4--2--3--|
|-0-6-----0-------|-0-6------------------|----------------------|----0--0-----|
|
|                                                                 PM----|  ~
|-----------------|----------------------|----------------------|-------------|
|-----------------|----------------------|----------------------|-------------|
|-----------------|----------------------|----------------------|-------------|
|-----------------|-------------[9]h[10]-|-[9]h[10]-------------|-2--------3--|
|-----7-8---1-3-4-|-----7-8-7-8----------|----------7-4-7-8-3-4-|-4--4--2-----|
|-0-6-----0-------|-0-6------------------|----------------------|----0--0-----|


                                                11/8
  PM--------------------|       PM----|          PM-------------------------|
|-------------------------|--------------------|-------------------------------|
|-------------------------|--------------------|-------------------------------|
|-------------------------|--5-----------5--4--|-------------------------------|
|-------------------------|--6-----------6--5--|--------------------------5--6-|
|-------------------------|--8-----------8--7--|---------------------4--7------|
|-0-0-0-0-0-0-0-0-0-0-0-0-|-----0-0-0-0--------|-4-4-4-0-0-0-1-1-1-0-----------|
|
| PM--------------------|       PM----|          PM-------------------------|
|-------------------------|--------------------|-------------------------------|
|-------------------------|--9-----------9--8--|-------------------------------|
|-------------------------|-10----------10--9--|-------------------------------|
|-------------------------|-10----------10--9--|--------------------------8-10-|
|-------------------------|--------------------|---------------------7-10------|
|-0-0-0-0-0-0-0-0-0-0-0-0-|-----0-0-0-0--------|-4-4-4-0-0-0-1-1-1-0-----------|


 4/4
  PM--------------------|      PM--|    PM--
|-------------------------|----------------|
|-------------------------|----------------|
|-------------------------|----------------|
|-------------------------|----------------|
|-------------------------|-8--4-4-4-8--7--|
|-6-6-6-0-0-0-2-2-2-0-0-0-|-6--------------|
|
| PM--------------------|      PM--|    PM--
|-------------------------|----------------|
|-------------------------|----------------|
|-------------------------|----------------|
|-------------------------|-3--2-2-2-6--2--|
|-------------------------|-1--------------|
|-6-6-6-0-0-0-2-2-2-0-0-0-|----------------|


 -----------------------|      PM----|
|-------------------------|---------------|
|-------------------------|---------------|
|-------------------------|---------------|
|-------------------------|----2--6--5----|
|-------------7-7-7-7-7-7-|-8--4--8--7----|
|-0-0-0-0-0-0-------------|-6-------------|
|
|-----------------------|      PM----|
|-------------------------|---------------|
|-------------------------|---------------|
|-------------------------|---------------|
|-------------------------|----2--6--5----|
|-------------7-7-7-7-7-7-|-8--4--8--7----|
|-0-0-0-0-0-0-------------|-6-------------|


 4/4                                             3/4               4/4
  Gtr I
                                  PM--|                  T     PM---|
|-----------------|-----------------|-----------|-----------------|--------|
|-----------------|-----8-----------|-----------|-----------------|--------|
|-----------------|-----------9-----|------5----|-0h6h9-12p9p6----|--------|
|---------------5-|-2S5---5-----8---|------6----|-----------------|--------|
|-----------3-4---|---------7-------|------8----|--------------4--|-3------|
|-4-0-3-1-3-------|---------------0-|-0---------|--------------1--|-0------|
|
| Gtr II
|                                 PM--|                  T     PM---|
|-----------------|-----------------|-----------|-0h6h9-12p9p6----|--------|
|-----------------|-----------------|-----------|-----------------|--------|
|-----------------|-----9-----6-----|------5----|-----------------|--------|
|---------------5-|-------------5---|------6----|--------------6--|-5------|
|-----------3-4---|-4S7---7-------4-|-4---------|--------------8--|-7------|
|-4-0-3-1-3-------|---------9-----0-|-0---------|-----------------|--------|


                                                                            ~
|-----------------|----------------------|-----------------------|-------------|
|-----------------|----------------------|-----------------------|-------------|
|-----------------|----------------------|-----------------------|-------------|
|-----------------|-------------[9]h[10]-|-----------------------|-2--------3--|
|-----7-8---1-3-4-|-----7-8-7-8----------|-[11]h[12]-7-4-7-8-3-4-|-4--1--2-----|
|-0-6-----0-------|-0-6------------------|-----------------------|-------0-----|
|
|                                                                  PM----|  ~
|-----------------|----------------------|-----------------------|-------------|
|-----------------|----------------------|-----------------------|-------------|
|-----------------|----------------------|-----------------------|-------------|
|-----------------|-------------[9]h[10]-|--[9]h[10]-------------|-2--------3--|
|-----7-8---1-3-4-|-----7-8-7-8----------|-----------7-4-7-8-3-4-|-4--4--2-----|
|-0-6-----0-------|-0-6------------------|-----------------------|----0--0-----|


                                                                   PM----|  ~
|-----------------|----------------------|-----------------------|-------------|
|-----------------|----------------------|-----------------------|-------------|
|-----------------|----------------------|-----------------------|----------5--|
|-----------------|-------------[9]h[10]-|-----------------------|-2--------3--|
|-----7-8---1-3-4-|-----7-8-7-8----------|-[11]h[12]-7-4-7-8-3-4-|-4--4--2--3--|
|-0-6-----0-------|-0-6------------------|-----------------------|----0--0-----|
|
|                                                                  PM----|  ~
|-----------------|----------------------|-----------------------|-------------|
|-----------------|----------------------|-----------------------|-------------|
|-----------------|----------------------|-----------------------|-------------|
|-----------------|-------------[9]h[10]-|--[9]h[10]-------------|-2--------3--|
|-----7-8---1-3-4-|-----7-8-7-8----------|-----------7-4-7-8-3-4-|-4--4--2-----|
|-0-6-----0-------|-0-6------------------|-----------------------|----0--0-----|


  Q=230
 4/4
  Gtr III
|----------|------------|----------(5)S=17-|
|----------|------------|------------------|
|----------|------------|------------------|
|----------|------------|------------------|
|----------|------------|------------------|
|----------|------------|------------------|
|
| Gtr I
|----------|------------|------------------|
|----------|------------|------------------|
|----------|------------|------------------|
|----------|------------|------------------|
|-2--------|-(2)--------|-(2)----5---------|
|-0--------|-(0)--------|-(0)----3---------|
|
| Gtr II
|----------|------------|------------------|
|----------|------------|------------------|
|----------|------------|------------------|
|----------|------------|------------------|
|-2--------|-(2)--------|-(2)----5---------|
|-0--------|-(0)--------|-(0)----3---------|


 4/4
  Gtr III
|-19----------------------------------|-19------------22p19--------|
|----19----------------------------19-|-----19--------------19-----|
|-------19----------------------19----|--------19------------------|
|----------21p16----------16h21-------|-----------21-----------21--|
|----------------17----17-------------|----------------------------|
|-------------------19----------------|----------------------------|
|
| Gtrs I, II
|-------------------------------------|----------------------------|
|-------------------------------------|----------------------------|
|-------------------------------------|----------------------------|
|-------------------------------------|----------------------------|
|--4----------------------------------|-(4)---------------------5--|
|--2----------------------------------|-(2)---------------------3--|


|----------------|------------------------|----------------------|
|-----------/20--|-19--20-17-20----20-----|----------------------|
|----------------|--------------19----18--|-(18)------16h18h19---|
|-(21)-----------|------------------------|----------------------|
|----------------|------------------------|----------------------|
|----------------|------------------------|----------------------|
|
|----------------|------------------------|----------------------|
|----------------|------------------------|----------------------|
|----------------|------------------------|----------------------|
|----------------|------------------------|----------------------|
|--(5)-----------|-(5)-----------------4--|--(4)-----------------|
|--(3)-----------|-(3)-----------------2--|--(2)-----------------|


|-----------19---------------------|---------------|
|-17--19-20----20-19-17-19-20-19---|---------------|
|----------------------------------|---------------|
|----------------------------------|---------------|
|----------------------------------|---------------|
|----------------------------------|---------------|
|
| Gtr I
|                     PM
|----------------------------------|---------------|
|----------------------------------|---------------|
|-----------------------------[3]--|---------------|
|----------------------------------|-------------4-|
|-(4)-----------------4------------|-------2-------|
|-(2)-----------------2------------|---0-2---0-2---|
|
| Gtr II
|                     PM
|----------------------------------|---------------|
|----------------------------------|---------------|
|-----------------------------[3]--|---------------|
|----------------------------------|---------------|
|-(4)-----------------4------------|---------------|
|-(2)-----------------2------------|---------------|


|----------19-------|-----------------------19h22p19------19-|
|-------------19----|--------------------19----------19------|
|----------------19-|-----------------19---------------------|
|-------------------|-16-----------16------------------------|
|-------------------|-----17----17---------------------------|
|-------------------|--------19------------------------------|
|
|-------------------|----------------------------------------|
|-------------------|----------------------------------------|
|-------------------|----------------------------------------|
|---4-4-------------|-(4)------------------------------------|
|-2---2-------------|-(2)------------------------------------|
|-----2-------------|-(2)--------------------------0----2----|
|
|-------------------|----------------------------------------|
|-------------------|----------------------------------------|
|-------------------|----------------------------------------|
|-----4-------------|-(4)------------------------------------|
|-----2-------------|-(2)------------------------------------|
|-----2-------------|-(2)--------------------------0----2----|


  Gtr III
|-------------------19-------------|-----19-17-19----19----19-|
|-19-------------------19----------|-17-----------20----19----|
|----19---16-(16)---------19p16S19-|--------------------------|
|----------------------------------|--------------------------|
|----------------------------------|--------------------------|
|----------------------------------|--------------------------|
|
| Gtrs I, II
|----------------------------------|--------------------------|
|----------------------------------|--------------------------|
|----------------------------------|--------------------------|
|--------------4-------------------|--------------------------|
|--2--------------2--5-------------|-(5)-----------------2----|
|-------0------------3-------------|-(3)-----------0--2-----0-|


|----19----19-------|----------------19---------------|
|-17----15----14----|-(14)--------19----19------------|
|-------------------|-------16h19----------19p==16h19-|
|-------------------|---------------------------------|
|-------------------|---------------------------------|
|-------------------|---------------------------------|
|
|-------------------|---------------------------------|
|-------------------|---------------------------------|
|-------------------|---------------------------------|
|-----4-----4-------|---------------------------------|
|--------2-----4----|--(4)----------------------------|
|--2-----------2----|--(2)---3----------------0-------|


  Gtr III
                                    T
|-15tr19----------------14h19p==14-22p19---14h|
|---------------------------------------------|
|---------------------------------------------|
|---------------------------------------------|
|---------------------------------------------|
|---------------------------------------------|
|
| Gtr I
|---------------------------------------------|
|---------------------------------------------|
|---------------------------------------------|
|---------------------------------------------|
|-----------------------------------2---------|
|-[2]-----([2])b4r([2])--0----2----------0----|
|
| Gtr II
|---------------------------------------------|
|---------------------------------------------|
|---------------------------------------------|
|---------------------------------------------|
|-[4]-----([4])b6r([4])-------------2---------|
|------------------------0----2----------0----|


              T                   T                 PM------------------|
|-19p14h==19-22p19---14h19p14h19-22p19p14-|---------------------------------|
|-----------------------------------------|-15--------------17-19-20-19-17--|
|-----------------------------------------|--------16-18-19-----------------|
|-----------------------------------------|---------------------------------|
|-----------------------------------------|---------------------------------|
|-----------------------------------------|---------------------------------|
|
|-----------------------------------------|---------------------------------|
|-----------------------------------------|---------------------------------|
|-----------------------------------------|---------------------------------|
|-------4----------4-----4----------------|-(4)-----------------------------|
|-------------2----------2----------------|-(2)-----------------------------|
|--2---------------------2----------------|-(2)-----------------0-----2-----|
|
|-----------------------------------------|---------------------------------|
|-----------------------------------------|---------------------------------|
|-----------------------------------------|---------------------------------|
|-------4----------4-----4----------------|-(4)-----------------------------|
|-------------2----------2----------------|-(2)-----------------------------|
|--2---------------------2----------------|-(2)-----------------0-----2-----|


  Gtr III
                           PM---|
|-----------------------------------|--------19-17-19----|
|-----------------------------------|-----------------20-|
|-19-18-16-15-16-18-16-15-16-18-----|-19-----------------|
|-------------------------------17--|--------------------|
|-----------------------------------|--------------------|
|-----------------------------------|--------------------|
|
| Gtrs I, II
|-----------------------------------|--------------------|
|-----------------------------------|--------------------|
|-----------------------------------|--------------------|
|--------------4--------------------|--------------------|
|--2-----------------2-----5--------|-(5)-----------2----|
|--------0-----------------3--------|-(3)-----0--2-----0-|



|-19----19---------------|
|----19----17-14--(14)\--|
|------------------------|
|------------------------|
|------------------------|
|------------------------|
|
|------------------------|
|------------------------|
|------------------------|
|-----4-----4------------|
|--------2-----4---------|
|--2-----------2---------|


    PM     PM---------------------------------------|
|------------------------------------------18------------|
|---------------17-19-17----------17-19-20----20-19-17---|
|-/16--17-18-19----------19-18-19------------------------|
|--------------------------------------------------------|
|--------------------------------------------------------|
|--------------------------------------------------------|
|
|--------------------------------------------------------|
|--------------------------------------------------------|
|--------------------------------------------------------|
|--------------------------------------------------------|
|--(4)---------------------------------------------------|
|--(2)-----------3--------------------------0------------|


  Gtr III
   PM---------------------------------------------------|
|--------18------------------------------------------------|
|-19--20----20--19-----17--19---15-19-17-15----15-17-19-15-|
|-------------------------------------------18-------------|
|----------------------------------------------------------|
|----------------------------------------------------------|
|----------------------------------------------------------|
|
| Gtr I
|----------------------------------------------------------|
|----------------------------------------------------------|
|----------------------------------------------------------|
|----------------------------------------------------------|
|-----------------------------------------------2----------|
|-[2]----------([2])b4r===([2])-----0-----2-----------0----|
|
| Gtr II
|----------------------------------------------------------|
|----------------------------------------------------------|
|----------------------------------------------------------|
|----------------------------------------------------------|
|-[4]----------([4])b6r===([4])-----------------2----------|
|-----------------------------------0-----2-----------0----|


|-------22------(22)\--|
|----19----------------|
|-16-------------------|
|----------------------|
|----------------------|
|----------------------|
|
|----------------------|
|----------------------|
|----------------------|
|-----4----4-4---------|
|--------2---2---------|
|--2---------2---------|
|
|----------------------|
|----------------------|
|----------------------|
|-----4----4-4---------|
|--------2---2---------|
|--2---------2---------|


  Gtr III
|-19--17-19-15-19-14-19----|--------------------|
|-----------------------17-|-15--14h15p14-------|
|--------------------------|--------------16----|
|--------------------------|--------------------|
|--------------------------|--------------------|
|--------------------------|--------------------|
|
| Gtrs I, II
|--------------------------|--------------------|
|--------------------------|--------------------|
|--------------------------|--------------------|
|-(4)-----------------4----|--------------------|
|-(2)-----------2--------2-|--5-----------------|
|-(2)-----0--2-----0-------|--3-----------------|


|--------19--------------------19---------|---------------------------|
|-----------19--------------19----19------|-----------------------19--|
|-(16)-----------19p16h19--------------19p|=15--(15)--(15)--15h19-----|
|-----------------------------------------|---------------------------|
|-----------------------------------------|---------------------------|
|-----------------------------------------|---------------------------|
|
|-----------------------------------------|---------------------------|
|-----------------------------------------|---------------------------|
|-----------------------------------------|---------------------------|
|-------------------------4----------4----|---------------------------|
|---------2---------------------2---------|--4------------------------|
|---0--2-------0-----2--------------------|--2------------------------|


  Gtr III
|-18---(18)--(18)b19r=(18)--|-(18)--(18)b20r===(18)---|
|---------------------------|-------------------------|
|---------------------------|-------------------------|
|---------------------------|-------------------------|
|---------------------------|-------------------------|
|---------------------------|-------------------------|
|
| Gtr I
|---------------------------|-------------------------|
|---------------------------|-------------------------|
|---------------------------|-------------------------|
|---------------------------|-------------------------|
|-(4)-----------------------|-------------------------|
|-(2)----3--------------0---|--[2]--([2])b4r===([2])--|
|
| Gtr II
|---------------------------|-------------------------|
|---------------------------|-------------------------|
|---------------------------|-------------------------|
|---------------------------|-------------------------|
|-(4)-----------------------|--[4]--([4])b6r===([4])--|
|-(2)----3--------------0---|-------------------------|


 7/4
   ~~
|-19--------------|-22b23r=====(22)----|
|-----------------|--------------------|
|-----------------|--------------------|
|-----------------|--------------------|
|-----------------|--------------------|
|-----------------|--------------------|
|
|-----------------|--------------------|
|-----------------|--------------------|
|-----------------|--------------------|
|--4--------------|--------------------|
|--2--------------|--5-----------------|
|--2--------------|--3-----------------|
|
|-----------------|--------------------|
|-----------------|--------------------|
|-----------------|--------------------|
|--4--------------|--------------------|
|--2--------------|--5-----------------|
|--2--------------|--3-----------------|


 4/4
  Gtr III
|-14-15-18-15-14----------------------------------|
|----------------17-15-14-15-17-15-14----14-15-14-|
|-------------------------------------16----------|
|-------------------------------------------------|
|-------------------------------------------------|
|-------------------------------------------------|
|
| Gtrs I, II
|-------------------------------------------------|
|-------------------------------------------------|
|-------------------------------------------------|
|-------------------------------------------------|
|--4----------------------------------------------|
|--2----------------------------------------------|


 7/4
|------------------------------------------------------------------19-------|
|---------------------------------------------19----------------19----19----|
|-16--15-------15----------------15-16-16--19----19p16----16h19----------19-|
|--------16-17----17-16-14-16-17-----------------------16-------------------|
|---------------------------------------------------------------------------|
|---------------------------------------------------------------------------|
|
|---------------------------------------------------------------------------|
|---------------------------------------------------------------------------|
|--------------------------------------[4]----------------------------------|
|---------------------------------------------------------------------------|
|-(4)-----------------------------------------------------------------------|
|-(2)-----------------------------------------------------------------------|


 4/4
|-19----------|
|-------------|
|-------------|
|-------------|
|-------------|
|-------------|
|
|-------------|
|-------------|
|-------------|
|--4----------|
|--2----------|
|--2------3-2-|


|-15-18-19-18-15----15-----------------------------|
|----------------19----19-17-19-17-15-14--15-------|
|--------------------------------------------16-15-|
|--------------------------------------------------|
|--------------------------------------------------|
|--------------------------------------------------|
|
|--------------------------------------------------|
|--------------------------------------------------|
|--------------------------------------------------|
|--------------------------------------------------|
|--------------------2----------------[2]----------|
|--0-----2-----3-----------3-----2-----------------|


|-------------------------------------------------|
|-14----------------------------------------------|
|----16-15----------------------------------------|
|----------17-16-14-16-17-16-14-------------------|
|-------------------------------17-16-14-13-14-16-|
|-------------------------------------------------|
|
|-------------------------------------------------|
|-------------------------------------------------|
|-------------------------------------------------|
|-------------------------------------------------|
|--5----------------------------------------------|
|--3-----------------------------------0-----3----|


  Gtr III
                                        ~~~~~~~~~~
|------------------------------------------|---------19-17----17-|
|----------------15-17-19-17--15----15-----|---------------20----|
|-------15-16-18-----------------19----16--|-(16)----------------|
|-16-17------------------------------------|---------------------|
|------------------------------------------|---------------------|
|------------------------------------------|---------------------|
|
| Gtr I
|------------------------------------------|---------------------|
|------------------------------------------|---------------------|
|-------------------------[5]--------------|---------------------|
|--------5-----4-----5------------------4--|--(4)----------------|
|---------------------------------------2--|--(2)--------------2-|
|--0------------------------------------2--|--(2)-----0--2--3----|
|
| Gtr II
|------------------------------------------|---------------------|
|------------------------------------------|---------------------|
|-------------------------[7]--------------|---------------------|
|--------5-----4-----5------------------4--|--(4)----------------|
|---------------------------------------2--|--(2)--------------2-|
|--0------------------------------------2--|--(2)-----0--2--3----|


|-------------------------------|--------------------------|
|-20-19-20--19-17b19r(17)-15-14-|-15--14-------19-17-19-15-|
|-------------------------------|--------16-15-------------|
|-------------------------------|--------------------------|
|-------------------------------|--------------------------|
|-------------------------------|--------------------------|
|
|-------------------------------|--------------------------|
|-------------------------------|--------------------------|
|-------------------------------|--------------------------|
|-------------------------------|------------------5--4--5-|
|-------[2]-----5---------------|-(5)----------------------|
|--3--2---------3---------------|-(3)-----0--3--0----------|
|
|-------------------------------|--------------------------|
|-------------------------------|--------------------------|
|-------------------------------|--------------------------|
|-------------------------------|------------------5--4--5-|
|-------[2]-----5---------------|-(5)----------------------|
|--3--2---------3---------------|-(3)-----0--3--0----------|


|--------------------19h21p19----19h|=22p19------------------------------------|
|-19-----19-------19----------19----|-------19------------19-17----------------|
|-----18----16b18-------------------|----------21------21---------16-----------|
|-----------------------------------|-------------21-----------------17-----17-|
|-----------------------------------|------------------------------------19----|
|-----------------------------------|------------------------------------------|
|
|-----------------------------------|------------------------------------------|
|-----------------------------------|------------------------------------------|
|-[5]-------------------------------|------------------------------------------|
|---------4-------------------------|------------------------------------------|
|---------2-------------------------|-----------------2---------------[2]------|
|---------2-------------------------|--0----2----3----------3----2-------------|
|
|-----------------------------------|------------------------------------------|
|-----------------------------------|------------------------------------------|
|-[7]-------------------------------|------------------------------------------|
|---------4-------------------------|------------------------------------------|
|---------2-------------------------|-----------------2---------------[2]------|
|---------2-------------------------|--0----2----3----------3----2-------------|


|----19h22p19----23p19----22p19------22b23r==|
|-20----------20-------20-------20-----------|
|--------------------------------------------|
|--------------------------------------------|
|--------------------------------------------|
|--------------------------------------------|
|
|--------------------------------------------|
|--------------------------------------------|
|--------------------------------------------|
|--------------------------------------------|
|--5-----------------------------------------|
|--3--------------------------0----3---------|
|
|--------------------------------------------|
|--------------------------------------------|
|--------------------------------------------|
|--------------------------------------------|
|--5-----------------------------------------|
|--3--------------------------0----3---------|


|-22-----------------18h19p18-|-----------------------18h==19p18---------|
|-----------------19----------|-19-----------------19------------19------|
|--------------19-------------|-----19----------19--------------------19p|
|----------21-----------------|--------21p20-21--------------------------|
|-----------------------------|------------------------------------------|
|-----------------------------|------------------------------------------|
|
|-----------------------------|------------------------------------------|
|-----------------------------|------------------------------------------|
|----------[5]----------------|------------------------------------------|
|----5-4-5------------4-------|-(4)--------------------------------------|
|---------------------2-------|-(2)---------------------------------2----|
|--0------------------2-------|-(2)-----------------0----2-----3---------|
|
|-----------------------------|------------------------------------------|
|-----------------------------|------------------------------------------|
|----------[7]----------------|------------------------------------------|
|----5-4-5------------4-------|-(4)--------------------------------------|
|---------------------2-------|-(2)---------------------------------2----|
|--0------------------2-------|-(2)-----------------0----2-----3---------|


|-------------------18----19-18----|
|----------------20----20-------20-|
|-16----------19-------------------|
|----------21----------------------|
|------22--------------------------|
|----------------------------------|
|
|----------------------------------|
|----------------------------------|
|----------------------------------|
|----------------------------------|
|------[2]--------5----------------|
|--3-2------------3----------------|
|
|----------------------------------|
|----------------------------------|
|----------------------------------|
|----------------------------------|
|------[2]--------5----------------|
|--3-2------------3----------------|


|-18---------------------------------------|-------------------------|
|-----20-19-20-19---17b19r(17)b20r==17b20r=|=(17)--17-19-15-19----19-|
|------------------------------------------|-------------------18----|
|------------------------------------------|-------------------------|
|------------------------------------------|-------------------------|
|------------------------------------------|-------------------------|
|
|------------------------------------------|-------------------------|
|------------------------------------------|-------------------------|
|-----------------------------------[5]----|-------------------------|
|-----------------5---------4-----5--------|-------------------------|
|-(5)--------------------------------------|---4---------------------|
|-(3)--------0-----------------------------|---2---------------------|
|
|------------------------------------------|-------------------------|
|------------------------------------------|-------------------------|
|-----------------------------------[7]----|-------------------------|
|-----------------5---------4-----5--------|-------------------------|
|-(5)--------------------------------------|---4---------------------|
|-(3)--------0-----------------------------|---2---------------------|


|---------------------------|---------------------------|
|-----19----19----19-19b20--|-19--20-17-20-15-20-15-20--|
|-16-----15-----------------|---------------------------|
|--------------16-----------|---------------------------|
|---------------------------|---------------------------|
|---------------------------|---------------------------|
|
|---------------------------|---------------------------|
|---------------------------|---------------------------|
|---------------------------|---------------------------|
|---------------------------|---------------------------|
|-(4)-----------------5-----|-(5)-----------------------|
|-(2)-----------------3-----|-(3)-----------------------|
|
|---------------------------|---------------------------|
|---------------------------|---------------------------|
|---------------------------|---------------------------|
|---------------------------|---------------------------|
|-(4)-----------------5-----|-(5)-----------------------|
|-(2)-----------------3-----|-(3)-----------------------|


          ~~~~~~~~~~~~~~~                                 ~~~
|-----------------|---------19----------------|-19-------18-------|-----|
|-----20----------|------------19----------19-|----19-------------|-----|
|-18-----15-------|-(15)----------21----21----|-------21----------|-----|
|-----------------|------------------21-------|-------------------|-----|
|-----------------|---------------------------|-------------------|-----|
|-----------------|---------------------------|-------------------|-----|
|
|-----------------|---------------------------|-----------6-------|-----|
|-----------------|---------------------------|-------------------|-----|
|-----------------|---------------------------|-------------------|-----|
|-----------------|---------------------------|-------------------|-----|
|-(5)--------4----|--(4)----------------------|--4----------------|-----|
|-(3)--------2----|--(2)----------------------|--2----------------|-----|
|
|-----------------|---------------------------|-------------------|-----|
|-----------------|---------------------------|-------------------|-----|
|-----------------|---------------------------|-------------------|-----|
|-----------------|---------------------------|----------[8]------|-----|
|-(5)--------4----|--(4)----------------------|--4----------------|-----|
|-(3)--------2----|--(2)----------------------|--2----------------|-----|


  Q=240
 4/4
  Gtr I
|-----------------|----------------------|
|-----------------|----------------------|
|-----------------|----------------------|
|-----------------|-------------[9]h[10]-|
|-----7-8---1-3-4-|-----7-8-7-8----------|
|-0-6-----0-------|-0-6------------------|
|
| Gtr II
|-----------------|----------------------|
|-----------------|----------------------|
|-----------------|----------------------|
|-----------------|-------------[9]h[10]-|
|-----7-8---1-3-4-|-----7-8-7-8----------|
|-0-6-----0-------|-0-6------------------|


                                   ~
|-----------------------|--------------|
|-----------------------|--------------|
|-----------------------|--------------|
|-----------------------|-2--------3---|
|-[11]h[12]-7-4-7-8-3-4-|-4--1--2------|
|-----------------------|-------0------|
|
|                         PM----|  ~
|-----------------------|--------------|
|-----------------------|--------------|
|-----------------------|--------------|
|--[9]h[10]-------------|-2--------3---|
|-----------7-4-7-8-3-4-|-4--4--2------|
|-----------------------|----0--0------|


|-----------------|----------------------|
|-----------------|----------------------|
|-----------------|----------------------|
|-----------------|-------------[9]h[10]-|
|-----7-8---1-3-4-|-----7-8-7-8----------|
|-0-6-----0-------|-0-6------------------|
|
|-----------------|----------------------|
|-----------------|----------------------|
|-----------------|----------------------|
|-----------------|-------------[9]h[10]-|
|-----7-8---1-3-4-|-----7-8-7-8----------|
|-0-6-----0-------|-0-6------------------|


                          PM----|  ~~~~~~~
|-----------------------|-------------|------|
|-----------------------|-------------|------|
|-----------------------|----------5--|------|
|-----------------------|-2--------3--|-2----|
|-[11]h[12]-7-4-7-8-3-4-|-4--4--2--3--|-4----|
|-----------------------|----0--0-----|------|
|
|                         PM----|  ~~~~~~~
|-----------------------|-------------|------|
|-----------------------|-------------|------|
|-----------------------|-------------|------|
|--[9]h[10]-------------|-2--------3--|-5----|
|-----------7-4-7-8-3-4-|-4--4--2-----|-7----|
|-----------------------|----0--0-----|------|


 4/4
  Gtr I
|-----------------|----------------------|
|-----------------|----------------------|
|-----------------|----------------------|
|-----------------|-------------[9]h[10]-|
|-----7-8---1-3-4-|-----7-8-7-8----------|
|-0-6-----0-------|-0-6------------------|
|
| Gtr II
|-----------------|----------------------|
|-----------------|----------------------|
|-----------------|----------------------|
|-----------------|-------------[9]h[10]-|
|-----7-8---1-3-4-|-----7-8-7-8----------|
|-0-6-----0-------|-0-6------------------|


                                   ~
|-----------------------|--------------|
|-----------------------|--------------|
|-----------------------|--------------|
|-----------------------|-2--------3---|
|-[11]h[12]-7-4-7-8-3-4-|-4--1--2------|
|-----------------------|-------0------|
|
|                         PM----|  ~
|-----------------------|--------------|
|-----------------------|--------------|
|-----------------------|--------------|
|--[9]h[10]-------------|-2--------3---|
|-----------7-4-7-8-3-4-|-4--4--2------|
|-----------------------|----0--0------|


|-----------------|----------------------|
|-----------------|----------------------|
|-----------------|----------------------|
|-----------------|-------------[9]h[10]-|
|-----7-8---1-3-4-|-----7-8-7-8----------|
|-0-6-----0-------|-0-6------------------|
|
|-----------------|----------------------|
|-----------------|----------------------|
|-----------------|----------------------|
|-----------------|-------------[9]h[10]-|
|-----7-8---1-3-4-|-----7-8-7-8----------|
|-0-6-----0-------|-0-6------------------|


                          PM----|  ~~~~~~~
|-----------------------|-------------|------|
|-----------------------|-------------|------|
|-----------------------|----------5--|------|
|-----------------------|-2--------3--|-2----|
|-[11]h[12]-7-4-7-8-3-4-|-4--4--2--3--|-4----|
|-----------------------|----0--0-----|------|
|
|                         PM----|  ~~~~~~~
|-----------------------|-------------|------|
|-----------------------|-------------|------|
|-----------------------|-------------|------|
|--[9]h[10]-------------|-2--------3--|-5----|
|-----------7-4-7-8-3-4-|-4--4--2-----|-7----|
|-----------------------|----0--0-----|------|


   ~~~                  T                    T
|-----------------|-----------------------------|
|---------------5h|==8-11--8p=5--------5h=8-14--|
|-----------------|-------------6---------------|
|-(2)------5h8----|---------------5h8-----------|
|-(4)-------------|-----------------------------|
|-----------------|-----------------------------|
|
|  ~~~
|-----------------|-------------------------12--|
|-----------------|-11h14p11-------------11-----|
|----------0h9h12-|----------12p9-0h9h12--------|
|-(5)-------------|-----------------------------|
|-(7)-------------|-----------------------------|
|-----------------|-----------------------------|


 4/4
|-------------------------|-------------------------|
|-------------------------|-------------------------|
|-------------------------|-------------------------|
|-------------------------|-----------------------2-|
|-------------------------|-------------------3h4---|
|-1-1-1-1-1-1-1-1-1-0-0-0-|-1-1-1-3-3-3-0-1-3-------|
|
|-------------------------|-------------------------|
|-------------------------|-------------------------|
|-------------------------|-------------------------|
|-------------------------|-----------------------2-|
|-------------------------|-------------------3h4---|
|-1-1-1-1-1-1-1-1-1-0-0-0-|-1-1-1-3-3-3-0-1-3-------|


                        6/8
|----------------------|-------------|
|----------------------|-------------|
|----------------------|-----------6-|
|----------------------|-------3-5---|
|----------------------|---4-7-------|
|-1-1-1-3-3-3-0-0-0-4--|-4-----------|
|
|----------------------|-------------|
|-------------------5--|-------------|
|----------------------|-----------9-|
|----------------------|-------6-8---|
|----------------------|-7-4-8-------|
|-1-1-1-3-3-3-0-0-0----|-------------|


 4/4
|-------------------------|-------------------------|
|-------------------------|-------------------------|
|-------------------------|-------------------------|
|-------------------------|-----------------------2-|
|-------------------------|-------3-3-3-------3h4---|
|-1-1-1-1-1-1-1-1-1-0-0-0-|-1-1-1-------0-1-3-------|
|
|-------------------------|-------------------------|
|-------------------------|-------------------------|
|-------------------------|-------------------------|
|-------------------------|-------2-2-2-----------2-|
|-------------------------|-------------------3h4---|
|-1-1-1-1-1-1-1-1-1-0-0-0-|-1-1-1-------0-1-3-------|


                        3/4
                                 T
|----------------------|----------------------------|
|----------------------|----------------------------|
|----------------------|-0h6h=9-12p=9p6--9b9.5r=0---|
|----------------------|----------------------------|
|----------------------|----------------------------|
|-3-3-3-0-0-0-1-1-1-4--|----------------------------|
|
|----------------------|----------------------------|
|-------------------5--|----------------------------|
|----------------------|-0-9-12-15-12-9-12b12.5r0---|
|----------------------|----------------------------|
|----------------------|----------------------------|
|-3-3-3-0-0-0-1-1-1----|----------------------------|


 4/4
|-------------------------|-------------------------|
|-------------------------|-------------------------|
|-------------------------|-------------------------|
|-------------------------|-----------------------2-|
|-------------------------|-------------------3h4---|
|-1-1-1-1-1-1-1-1-1-0-0-0-|-1-1-1-3-3-3-0-1-3-------|
|
|-------------------------|-------------------------|
|-------------------------|-------------------------|
|-------------------------|-------------------------|
|-------------------------|-----------------------2-|
|-------------------------|-------------------3h4---|
|-1-1-1-1-1-1-1-1-1-0-0-0-|-1-1-1-3-3-3-0-1-3-------|


                        6/8
|----------------------|-------------|
|----------------------|-------------|
|----------------------|-----------6-|
|----------------------|-------3-5---|
|----------------------|---4-7-------|
|-1-1-1-3-3-3-0-0-0-4--|-4-----------|
|
|----------------------|-------------|
|-------------------5--|-------------|
|----------------------|-----------9-|
|----------------------|-------6-8---|
|----------------------|-7-4-8-------|
|-1-1-1-3-3-3-0-0-0----|-------------|


 4/4
|-------------------------|-------------------------|-----------------------|
|-------------------------|-------------------------|-----------------------|
|-------------------------|-------------------------|-----------------------|
|-------------------------|-----------------------2-|-----------------------|
|-------------------------|-------3-3-3-------3h4---|-----------------------|
|-1-1-1-1-1-1-1-1-1-0-0-0-|-1-1-1-------0-1-3-------|-3-3-3-0-0-0-1-1-1-4---|
|
|-------------------------|-------------------------|-----------------------|
|-------------------------|-------------------------|-------------------5---|
|-------------------------|-------------------------|-----------------------|
|-------------------------|-------2-2-2-----------2-|-----------------------|
|-------------------------|-------------------3h4---|-----------------------|
|-1-1-1-1-1-1-1-1-1-0-0-0-|-1-1-1-------0-1-3-------|-3-3-3-0-0-0-1-1-1-----|


 3/4             4/4
                                                   T
|-------------||------------------|----------------------|-----------------|
|-------------||o-----------------|----------------------|-----------------|
|-------------||------------------|----------------------|-----------------|
|---6p5-----5-||--------4-------4-|---5------------------|-------6---5-----|
|-0-----3-4---||o-2-1-4---2-1-4---|-3---4-3--------------|-------------4-3-|
|-------------||--0-------0-------|-0-------0h6h9-12p9p6-|-3-4-6---3-------|
|
|                                                  T
|-------------||------------------|----------------------|-----------------|
|-----------5-||o-----------------|---------0h2h5--8p5p2-|-----------------|
|-------6-3---||------------------|----------------------|-----------------|
|---3p2-------||--------4-------4-|---5------------------|-----------5-----|
|-0-----------||o-2-1-4---2-1-4---|-3---4-3--------------|-------3-----4-3-|
|-------------||--0-------0-------|-0--------------------|-1-3-4---3-------|


 3/4        4/4
                                              T
|----------|-----------------|----------------------|-----------------|
|----------|-----------------|----------------------|-----------------|
|----------|-----------------|----------------------|-----------------|
|-2--6--5--|-------4-------4-|---5------------------|---6-------5-----|
|-4--8--7--|-2-1-4---2-1-4---|-3---4-3--------------|-------------4-3-|
|-0--------|-0-------0-------|-0-------0h6h9-12p9p6-|-4---6-4-3-------|
|
|                                             T
|----------|-----------------|----------------------|-----------------|
|----------|-----------------|---------0h2h5--8p5p2-|-----------------|
|----------|-----------------|----------------------|-----------------|
|-2--6--5--|-------4-------4-|---5------------------|---3-5-2---5-----|
|-4--8--7--|-2-1-4---2-1-4---|-3---4-3--------------|-------------4-3-|
|-0--------|-0-------0-------|-0--------------------|-1-------3-------|


 3/4        2/4         4/4
                    T                     T                     T
|----------|-----------|---------------------|---------------------|
|----------|-----------|---------------------|---------------------|
|----------|-----------|---------------------|-----------0h6h9-12--|
|-2--6--5--|-----------|---------------------|---------------------|
|-4--8--7--|-----------|-11-7-10-8-----------|-4-5--7--8-----------|
|-0--------|-0h6h9-12--|-----------0h6h9-12--|---------------------|
|
|                   T                     T                     T
|----------|-----------|---------------------|---------------------|
|----------|-----------|---------------------|---------------------|
|----------|-----------|---------------------|-----------0h6h9-12--|
|-2--6--5--|-----------|---------------------|---------------------|
|-4--8--7--|-----------|-11-7-10-8-----------|-7-8-10-11-----------|
|-0--------|-0h6h9-12--|-----------0h6h9-12--|---------------------|


                 3/4              4/4                  3/4
|---------------|----------------|--------------------|-------------------|
|---------------|---2-[5]-[6]----|---------[5]-[6]----|---------[6]S=[9]--|
|---------------|-3--------------|-1---0--------------|-------------------|
|-2---------2-5-|-------------3--|---2---3---------2--|-6-----------------|
|-4--4----------|-------------1--|-----------------4--|---5-7-8-----------|
|----1--0-0-----|-------------1--|-----------------0--|-------------------|
|
|---------------|----------------|--------------------|-------------------|
|---------------|---2-[5]-[6]----|---------[5]-[6]----|---------[9]S[12]--|
|---------------|-3--------------|-1---0--------------|-------------------|
|-2-----------5-|-------------3--|---2---3---------2--|-2-3-5-6-----------|
|-4--4----1-----|-------------1--|-----------------4--|-------------------|
|----1--0---0---|-------------1--|-----------------0--|-------------------|


                          1.
 3/4        3/4
|----------|-------------|-6------------||
|----------|-----------5-|---5---6-5---o||
|----------|---------6---|-----3-----3--||
|-2--5--2--|-----5-8-----|--------------||
|-4--7--4--|-------------|-------------o||
|-0--------|-0-0---------|--------------||
|
|----------|-------------|--------------||
|----------|-------------|-8-----------o||
|----------|-----------6-|---6---6-6----||
|-2--5--2--|---------5---|-----5-----5--||
|-4--7--4--|-----4-7-----|-------------o||
|-0--------|-0-6---------|--------------||


  2.
 4/4
         T            T              T                 T            T
|---------------------------|-----------------------|------------------------|
|---------------------------|-----------------------|------------------------|
|--------------0h6h9-12p9p6-|-----------------0h6h9-|-12p9p6-----------------|
|---------------------------|--------------2--------|------------------------|
|---------------------------|--------------4--------|---------------------4--|
|-0h6h9-12p9p6--------------|-0h6h9-12p9p6----------|--------0h6h9-12p9p6-0--|
|
|                                                      T            T
|---------------------------|-----------------0h6h9-|-12p9p6-----------------|
|---------------------------|-----------------------|------------------------|
|---------------------------|-----------------------|--------0h6h9-12p9p6----|
|---------------------------|-----------------------|---------------------6--|
|---------------------------|--------------4--------|---------------------8--|
|---------------------------|--------------0--------|------------------------|


           ~           T            T              T
|-------------|---------------------------|-----------------------|
|-------------|---------------------------|-----------------------|
|-------------|--------------0h6h9-12p9p6-|-0h6h9-12p9p6----0h6h9-|
|-------------|---------------------------|--------------2--------|
|-3--3--4--4--|---------------------------|--------------4--------|
|-0--0--0-----|-0h6h9-12p9p6--------------|-----------------------|
|
|          ~           T            T              T
|-------------|---------------------------|-0h6h9-12p9p6----0h6h9-|
|-------------|---------------------------|-----------------------|
|----------6--|-0h6h9-12p9p6-0h6h9-12p9p6-|-----------------------|
|-5--5--6--5--|---------------------------|-----------------------|
|-7--7--8-----|---------------------------|--------------4--------|
|-------------|---------------------------|--------------0--------|


   T            T                   ~
|------------------------|-------------|
|------------------------|-------------|
|-12p9p6-----------------|-------------|
|------------------------|-------------|
|---------------------4--|-3--3--4--4--|
|--------0h6h9-12p9p6-0--|-0--0--0-----|
|
|  T            T                   ~
|-12p9p6-----------------|-------------|
|------------------------|-------------|
|--------0h6h9-12p9p6----|----------6--|
|---------------------6--|-5--5--6--5--|
|---------------------8--|-7--7--8-----|
|------------------------|-------------|


         T            T              T
|---------------------------|-----------------------|
|---------------------------|-----------------------|
|--------------0h6h9-12p9p6-|-----------------0h6h9-|
|---------------------------|--------------2--------|
|---------------------------|--------------4--------|
|-0h6h9-12p9p6--------------|-0h6h9-12p9p6----------|
|
|        T            T              T
|--------------0h6h9-12p9p6-|-----------------0h6h9-|
|---------------------------|-----------------------|
|-0h6h9-12p9p6--------------|-0h6h9-12p9p6----------|
|---------------------------|-----------------------|
|---------------------------|--------------4--------|
|---------------------------|--------------0--------|


   T            T                   ~
|------------------------|-------------|
|------------------------|-------------|
|-12p9p6-----------------|-------------|
|------------------------|-------------|
|---------------------4--|-3--3--4--4--|
|--------0h6h9-12p9p6-0--|-0--0--0-----|
|
|  T            T                   ~
|-12p9p6-----------------|-------------|
|------------------------|-------------|
|--------0h6h9-12p9p6----|----------6--|
|---------------------6--|-5--5--6--5--|
|---------------------8--|-7--7--8-----|
|------------------------|-------------|


         T            T              T
|---------------------------|-----------------------|
|---------------------------|-----------------------|
|-0h6h9-12p9p6--------------|-0h6h9-12p9p6----0h6h9-|
|---------------------------|--------------2--------|
|---------------------------|--------------4--------|
|--------------0h6h9-12p9p6-|-----------------------|
|
|        T            T              T
|---------------------------|-0h6h9-12p9p6----0h6h9-|
|---------------------------|-----------------------|
|-0h6h9-12p9p6-0h6h9-12p9p6-|-----------------------|
|---------------------------|-----------------------|
|---------------------------|--------------4--------|
|---------------------------|--------------0--------|


   T            T                   ~
|------------------------|-------------|
|------------------------|-------------|
|-12p9p6-----------------|-------------|
|------------------------|-------------|
|---------------------4--|-3--3--4--4--|
|--------0h6h9-12p9p6-0--|-0--0--0-----|
|
|  T            T                   ~
|-12p9p6-----------------|-------------|
|------------------------|-------------|
|--------0h6h9-12p9p6----|----------6--|
|---------------------6--|-5--5--6--5--|
|---------------------8--|-7--7--8-----|
|------------------------|-------------|


                          3/4
         T                           T
|------------------------|-----------------|
|------------------------|-----------------|
|------------------------|----0h6h9-12p9p6-|
|------------------------|-----------------|
|---------------7--------|-4---------------|
|-0h6h9-12p9p6----4-6--0-|-----------------|
|
|        T                           T
|--------------12--------|----0h6h9-12p9p6-|
|-----------------9-9-11-|-----------------|
|-0h6h9-12p9p6-----------|-9---------------|
|------------------------|-----------------|
|------------------------|-----------------|
|------------------------|-----------------|


||--------------|-------------|---------------|-------------3--||-6-----------|
||o-------------|-------------|---------------|--------2-5----o||---5---6-5---|
||--------------|-------------|---------------|-----3----------||-----3-----3-|
||--------------|-------------|-[9]-----------|-2-5------------||-------------|
||o-----7-4-7-8-|-----7-4-7-8-|-----4-7-4-7-8-|---------------o||-------------|
||--0-6---------|-0-6---------|---------------|----------------||-------------|
|
||--------------|-------------|---------------|----------------||-------------|
||o-------------|-------------|---------------|---------------o||-8-----------|
||--------------|-------------|-[4]S5---------|----------------||---6---6-6---|
||--------------|-------------|---------------|----------8-11--||-----5-----5-|
||o-----7-4-7-8-|-----7-4-7-8-|-----------7-8-|-----7-10------o||-------------|
||--0-6---------|-0-6---------|-------0-6-----|-6-9------------||-------------|


 4/4
|-----------------|----------------------|
|-----------------|----------------------|
|-----------------|-------------[7]h=[8]-|
|-----------------|----------------------|
|-----7-8---1-3-4-|-----7-8-7-8----------|
|-0-6-----0-------|-0-6------------------|
|
|-----------------|----------------------|
|-----------------|----------------------|
|-----------------|----------------------|
|-----------------|-------------[9]h[10]-|
|-----7-8---1-3-4-|-----7-8-7-8----------|
|-0-6-----0-------|-0-6------------------|


                                   ~
|-----------------------|--------------|
|-----------------------|--------------|
|-----------------------|--------------|
|-----------------------|-2--------3---|
|-[11]h[12]-7-4-7-8-3-4-|-4--1--2------|
|-----------------------|-------0------|
|
|                         PM----|  ~
|-----------------------|--------------|
|-----------------------|--------------|
|-----------------------|--------------|
|--[9]h[10]-------------|-2--------3---|
|-----------7-4-7-8-3-4-|-4--4--2------|
|-----------------------|----0--0------|


                                                                   PM----|  ~
|-----------------|----------------------|-----------------------|-------------|
|-----------------|----------------------|-----------------------|-------------|
|-----------------|-------------[7]h=[8]-|-----------------------|----------5--|
|-----------------|----------------------|-----------------------|-2--------3--|
|-----7-8---1-3-4-|-----7-8-7-8----------|-[11]h[12]-7-4-7-8-3-4-|-4--4--2--3--|
|-0-6-----0-------|-0-6------------------|-----------------------|----0--0-----|
|
|                                                                  PM----|  ~
|-----------------|----------------------|-----------------------|-------------|
|-----------------|----------------------|-----------------------|-------------|
|-----------------|----------------------|-----------------------|-------------|
|-----------------|-------------[9]h[10]-|--[9]h[10]-------------|-2--------3--|
|-----7-8---1-3-4-|-----7-8-7-8----------|-----------7-4-7-8-3-4-|-4--4--2-----|
|-0-6-----0-------|-0-6------------------|-----------------------|----0--0-----|


                                                11/8
  PM--------------------|       PM----|          PM-------------------------|
|-------------------------|--------------------|-------------------------------|
|-------------------------|--------------------|-------------------------------|
|-------------------------|--5-----------5--4--|-------------------------------|
|-------------------------|--6-----------6--5--|--------------------------5--6-|
|-------------------------|--8-----------8--7--|---------------------4--7------|
|-0-0-0-0-0-0-0-0-0-0-0-0-|-----0-0-0-0--------|-4-4-4-0-0-0-1-1-1-0-----------|
|
| PM--------------------|       PM----|          PM-------------------------|
|-------------------------|--------------------|-------------------------------|
|-------------------------|--9-----------9--8--|-------------------------------|
|-------------------------|-10----------10--9--|-------------------------------|
|-------------------------|-10----------10--9--|--------------------------8-10-|
|-------------------------|--------------------|---------------------7-10------|
|-0-0-0-0-0-0-0-0-0-0-0-0-|-----0-0-0-0--------|-4-4-4-0-0-0-1-1-1-0-----------|


 4/4
  PM--------------------|      PM--|    PM--
|-------------------------|----------------|
|-------------------------|----------------|
|-------------------------|----------------|
|-------------------------|----------------|
|-------------------------|-8--4-4-4-8--7--|
|-6-6-6-0-0-0-2-2-2-0-0-0-|-6--------------|
|
| PM--------------------|      PM--|    PM--
|-------------------------|----------------|
|-------------------------|----------------|
|-------------------------|----------------|
|-------------------------|-3--2-2-2-6--2--|
|-------------------------|-1--------------|
|-6-6-6-0-0-0-2-2-2-0-0-0-|----------------|


 -----------------------|      PM----|
|-------------------------|------------|---*|
|-------------------------|------------|---*|
|-------------------------|------------|---*|
|-------------------------|----2--6--5-|---*|
|-------------7-7-7-7-7-7-|-8--4--8--7-|---*|
|-0-0-0-0-0-0-------------|-6----------|---*|
|
|-----------------------|      PM----|
|-------------------------|------------|---*|
|-------------------------|------------|---*|
|-------------------------|------------|---*|
|-------------------------|----2--6--5-|---*|
|-------------7-7-7-7-7-7-|-8--4--8--7-|---*|
|-0-0-0-0-0-0-------------|-6----------|---*|





 Extreme Unction---------------------------------------

Intro (bass)
  Q=210
 3/4
  Gtrs I, II
|-----|
|-----|
|-----|
|-----|
|-----|
|-----|


 Riff A (0:01)
 7/4
  Gtrs I, II
  PM|    PM----------------------|    PM------|
|----------------------------|----------------------------|
|----------------------------|----------------------------|
|----------------------------|----------------------------|
|----------------------------|--------------------2h3p2---|
|------------------4---4---4-|------------------4-------4-|
|-0-0-0--0-1-0-3-0---6---4---|-0-0-0--0-1-0-3-0-----------|


  Gtr I
  PM       PM   PM   PM------------------|    PM------|
|------------------------------------|----------------------------|
|------------------------------------|----------------------------|
|------------------------------------|--------------------1h2p1---|
|-----[6]----------------------------|------------------3-------3-|
|---7---------8---10----7-4--7-----7-|--------------1-------------|
|-0--------0----0----0----------6----|-0-0-0--0-0-0-1-0-----------|
|
| Gtr II
| PM       PM   PM   PM-----------|
|------------------------------------|----------------------------|
|------------------------------------|----------------------------|
|------------------------------------|----------------------------|
|-----[9]--------------11-8-11----11-|----------------------------|
|---7--------11---13-7---------10----|--------7-7-7-8-------------|
|-0--------0----0--------------------|-0-0-0----------------------|


  Gtrs I, II
  PM|    PM----------------------|    PM------|
|----------------------------|----------------------------|
|----------------------------|----------------------------|
|----------------------------|----------------------------|
|----------------------------|--------------------2h3p2---|
|------------------4---4---4-|------------------4-------4-|
|-0-0-0--0-1-0-3-0---6---4---|-0-0-0--0-1-0-3-0-----------|


  Gtr I
  PM       PM   PM   PM------------------|    PM------|
|------------------------------------|-------------------------------|
|------------------------------------|-------------------------------|
|------------------------------------|---------------------1h=2p1----|
|-----[6]----------------------------|-------------------3---------3-|
|---7---------8---10----7-4--7-----7-|-------------------------------|
|-0--------0----0----0----------6----|-0-0-0--0-4-0-7-0--------------|
|
| Gtr II
| PM       PM   PM   PM------------------|    PM  PM
|------------------------------------|-------------------------------|
|------------------------------------|-------------------------------|
|------------------------------------|-------------------------------|
|-----[9]--------------11-8-11----11-|---------------------9h10p9----|
|---7--------11---13-7---------10----|----------7---8---11--------11-|
|-0--------0----0--------------------|-0-0-0--0---0---0--------------|


   Riff B (0:17)
   4/4
    PM       PM--------|        PM|
||-------------------|--------------------|
||o------------------|--------------------|
||-------------------|-----------------10-|
||------[6]----------|-----[6]-------9----|
||o---7--------------|---7----------------|
||--0--------0-0-0-0-|-0--------0-0-------|
|
|   PM       PM--------|        PM|
||-------------------|--------------------|
||o------------------|--------------------|
||-------------------|-----------------13-|
||------[9]----------|-----[9]------12----|
||o---7--------------|---7----------------|
||--0--------0-0-0-0-|-0--------0-0-------|


  PM       PM--------|   ~  PM
|------------------|-----------------||
|------------------|----------------o||
|------------------|----------10-----||
|-----[6]----------|-----------------||
|---7--------------|---7-7-------8--o||
|-0--------0-0-0-0-|-0------0--------||
|
| PM       PM--------|   ~  PM
|------------------|-----------------||
|------------------|----------------o||
|------------------|----------10-----||
|-----[9]----------|-----------------||
|---7--------------|---7-7-------8--o||
|-0--------0-0-0-0-|-0------0--------||


                                                           2/4
  PM  ~  PM        PM    ~~~~PM        PM         PM
|----------------|-------------------|--------------------|-----|
|----------------|-------------------|--------------------|-----|
|----------------|-------------10----|--------------------|-----|
|----------------|-------------------|--------------------|-----|
|---7-7----11-8--|---7---7--------8--|---7b9r=(7)---11-8--|-----|
|-0------0-------|-0---------0-------|-0----------0-------|-----|
|
| PM  ~  PM        PM        PM        PM         PM
|----------------|-------------------|--------------------|-----|
|----------------|--------------9----|--------------------|-----|
|----------------|-------------------|---6b8r=(6)---10-7--|-----|
|----------------|----------------6--|--------------------|-----|
|---7-7----11-8--|---7-[10]--7-------|--------------------|-----|
|-0------0-------|-0-----------------|-0----------0-------|-----|


   Riff C (0:30)
                                             1.                2.
   3/4
    PM------|     PM------|     PM------|     PM----|           PM----|
||--------------|-------------|-------------|----------------||---------------|
||o-------------|-------------|-------------|---------------o||---------------|
||--------------|-------------|-------------|----------------||---------------|
||--------------|-----------3-|-------------|-2-2-2-2-3-6-3--||-2-2-2-2-3-6---|
||o-2-3-2-3-2-1-|-2-3-2-3-2---|-2-3-2-3-2-1-|---------------o||---------------|
||--0-1-0-1-0---|-0-1-0-1-0---|-0-1-0-1-0---|----------------||---------------|
|
|   PM------|     PM------|     PM------|     PM----|           PM----|
||--------------|-------------|-------------|----------------||---------------|
||o-------------|-------------|-------------|---------------o||---------------|
||--------------|-------------|-------------|----------------||---------------|
||--------------|-----------3-|-------------|-5-5-5-5-6-9-6--||-5-5-5-5-6-9---|
||o-2-3-2-3-2-1-|-2-3-2-3-2-1-|-2-3-2-3-2-1-|---------------o||---------------|
||--0-1-0-1-0---|-0-1-0-1-0---|-0-1-0-1-0---|----------------||---------------|


 Riff D (0:37)
  Q=135
 4/4                                                             2/4
  Gtrs I, II
|----------|-------------|-^6----------|-----------------|-----|
|----------|-----0-------|-^6----------|-----0-------!0--|-----|
|-0--------|-----0-------|-^6----------|-----4-------!4--|-----|
|-5--------|---3---------|-^8----------|---2---------!2--|-----|
|-7--------|-2-----------|-^6------4\--|-4-----------!2--|-----|
|-0--------|-------------|-^6----------|-----------------|-----|


   Riff C' (without the eighth note chopped off) (0:44)
    Q=210
   3/4
    PM------|     PM------|     PM------|     PM----|
||--------------|-------------|-------------|----------------||
||o-------------|-------------|-------------|---------------o||
||--------------|-------------|-------------|----------------||
||--------------|-----------3-|-------------|-2-2-2-2-3-6-3--||
||o-2-3-2-3-2-1-|-2-3-2-3-2---|-2-3-2-3-2-1-|---------------o||
||--0-1-0-1-0---|-0-1-0-1-0---|-0-1-0-1-0---|----------------||
|
|   PM------|     PM------|     PM------|     PM----|
||--------------|-------------|-------------|----------------||
||o-------------|-------------|-------------|---------------o||
||--------------|-------------|-------------|----------------||
||--------------|-----------3-|-------------|-5-5-5-5-6-9-6--||
||o-2-3-2-3-2-1-|-2-3-2-3-2-1-|-2-3-2-3-2-1-|---------------o||
||--0-1-0-1-0---|-0-1-0-1-0---|-0-1-0-1-0---|----------------||


 Pre-Verse (0:51)
  Q=220
 2/4          4/4
  PM|          PM--|   PM--|     PM--|   PM  PM
|------------|-----------------|-----------------|
|------------|-----------------|-----------------|
|-------7h10-|-------3-------3-|-------3---------|
|-6--9-------|-----2-------2---|-----2-----------|
|------------|---1-------1-----|---1-------3---4-|
|------------|-0-------0-------|-0-------1---1---|
|
| PM|          PM--|   PM--|     PM--|   PM  PM
|------------|-----------------|-----------------|
|------------|-----------------|-----------------|
|------10h13-|-------3-------3-|-------3---5---6-|
|-9-12-------|-----2-------2---|-----2---3---3---|
|------------|---1-------1-----|---1-------------|
|------------|-0-------0-------|-0---------------|


  PM--|   PM--|     PM--|
|-----------------|-----------------|
|-----------------|-----------------|
|-------3-------3-|-------6---------|
|-----2-------2---|-----2---5-------|
|---1-------1-----|---1-------4-----|
|-0-------0-------|-0---------------|
|
| PM--|   PM--|     PM--|
|-----------------|-----------------|
|-----------------|-----------------|
|-------3-------6-|-------9---------|
|-----2-------5---|-----8---8-------|
|---1-------4-----|---7-------7-----|
|-0-------3-------|-6---------------|


  PM--|   PM--|     PM--|   PM  PM    PM--|   PM----------|
|-----------------|-----------------|-----------------|---------|
|-----------------|-----------------|-----------------|---------|
|-------3-------3-|-------3---------|-------3---6---6-|---6-----|
|-----2-------2---|-----2-----------|-----2---3---5---|-5-------|
|---1-------1-----|---1-------3---4-|---1-------------|---------|
|-0-------0-------|-0-------1---1---|-0---------------|---------|
|
| PM--|   PM--|     PM--|   PM  PM    PM--|   PM|
|-----------------|-----------------|-----------------|---------|
|-----------------|-----------------|-----------------|---------|
|-------3-------3-|-------3---5---6-|-------6-----9---|-9-------|
|-----2-------2---|-----2---3---3---|-----5---6-8---8-|---8-----|
|---1-------1-----|---1-------------|---4-------------|---------|
|-0-------0-------|-0---------------|-3---------------|---------|


   Verse (1:01)
    PM--|   PM--|     PM--|   PM  PM    PM--|   PM--|     PM--|   PM--|
||------------------|-----------------|-----------------|------------------|
||o-----------------|-----------------|-----------------|---------------5--|
||--------3-------3-|-------3---------|-------3-------3-|-------6-----3----|
||------2-------2---|-----2-----------|-----2-------2---|-----5------------|
||o---1-------1-----|---1-------3---4-|---1-------1-----|---4-------1------|
||--0-------0-------|-0-------1---1---|-0-------0-------|-3-------0--------|
|
|   PM--|   PM--|     PM--|   PM  PM    PM--|   PM--|     PM--|   PM|
||------------------|-----------------|-----------------|------------------|
||o-----------------|-----------------|-----------------|---------------8--|
||--------3-------3-|-------3---5---6-|-------3-------6-|-------9-----6----|
||------2-------2---|-----2---3---3---|-----2-------5---|-----8------------|
||o---1-------1-----|---1-------------|---1-------4-----|---7-------4------|
||--0-------0-------|-0---------------|-0-------3-------|-6-------3--------|


                                              Q1.10
                                     2/4       3/4
  PM--|   PM--|     PM--|   PM  PM    PM--|     PM
|-----------------|-----------------|---------|---------------||
|-----------------|-----------------|---------|--------------o||
|-------3-------3-|-------3---------|-------3-|---------------||
|-----2-------2---|-----2-----------|-----2---|-----2h3p2-----||
|---1-------1-----|---1-------3---4-|---1-----|---4-------4--o||
|-0-------0-------|-0-------1---1---|-0-------|-0-------------||
|
| PM--|   PM--|     PM--|   PM  PM
|-----------------|-----------------|---------|---------------||
|-----------------|-----------------|-------8-|--------------o||
|-------3-------3-|-------3---5---6-|-----6---|---------------||
|-----2-------2---|-----2---3---3---|---5-----|---------------||
|---1-------1-----|---1-------------|-4-------|--------------o||
|-0-------0-------|-0---------------|---------|---------------||


  2.210
  PM            PM             PM------|
|-------------|------------||--------------|
|-------------|------------||o-------------|
|-------------|------------||--------------|
|-----2h3p2---|------2h3p2-||--------------|
|---4-------4-|-2--4-------||o-----------1-|
|-0-----------|-0----------||--0-1-0-1-0---|
|
| PM            PM             PM------|
|-------------|------------||--------------|
|-------------|------------||o-------------|
|-------------|----3-5h6p5-||--------------|
|---3-5h6p5-3-|------------||--------------|
|-------------|-2----------||o-2-3-2-3-2-1-|
|-0-----------|-0----------||--0-1-0-1-0---|


  PM------|     PM            PM
|-------------|-------------|------------|
|-------------|-------------|------------|
|-------------|-------------|------------|
|-----------3-|-----2h3p2---|------2h3p2-|
|-------------|---4-------4-|-2--4-------|
|-0-1-0-1-0---|-0-----------|-0----------|
|
| PM------|     PM            PM
|-------------|-------------|------------|
|-------------|-------------|------------|
|-------------|-------------|----3-5h6p5-|
|-----------3-|---3-5h6p5-3-|------------|
|-2-3-2-3-2---|-------------|-2----------|
|-0-1-0-1-0---|-0-----------|-0----------|


               1.                                         2.
  PM  PM  PM    PM--|   PM              PM--|              PM----|
|-------------|-------------|-------------|-------------||---------------|
|-------------|-------------|-------------|------------o||---------------|
|-------------|-------3-----|-------------|-------------||---------------|
|---5---2-----|-----------3p|=2---2h3p2---|------2h3p2--||---------------|
|-----------4-|---1-4-------|---4-------4-|-2--4-------o||---------4-----|
|-0---0---0---|-0-------1---|-------------|-0-----------||-0-3-0-1-------|
|
| PM  PM  PM    PM--|   PM                  PM             PM----|
|-------------|-------------|-------------|-------------||---------------|
|-------------|-------------|-------------|------------o||---------------|
|-------------|-------3-----|-------------|----3-5h6p5--||---------------|
|---5---2-----|-----------3p|=2-3-5h6p5-3-|-------------||---------2-----|
|-----------4-|---1-4-------|-------------|-2----------o||---------------|
|-0---0---0---|-0-------1---|-------------|-0-----------||-0-3-0-1-------|


 Riff D (1:31)

 Chorus (1:38)
    Q=210
   4/4
    Gtrs I, II
    PM    PM    PM|      PM     PM    PM--|   PM    PM--|
||-------------------|------------------|-----------------|
||o------------------|------------------|-----------------|
||-------------------|------------------|-----------------|
||-------------------|-------11---------|---8-------------|
||o---8-7---7-8---10-|-7---7------8-7---|-7-----8-7-------|
||--0-----0-----0----|---0------0-----0-|-----0-----6-8-9-|


                                       1.
  Gtr I
  PM---------------------|    PM--------|   PM|
|------------------|------------------|-----------------||
|------------------|------------------|----------------o||
|------------------|------------------|-----------------||
|------------------|-------11---------|---8-------------||
|---8-7---7-8---10-|-7---7------8-7---|-7---7---[7]----o||
|-6-----6-----6----|---6------6-----6-|-------6---------||
|
| Gtr II
| PM------------------------------------|   PM|
|------------------|------------------|-----------------||
|------------------|------------------|----------------o||
|------------------|------------------|-----------------||
|------------------|-------11---------|---8-----[5]-----||
|---8-7---7-8---10-|-7---7------8-7---|-7---7----------o||
|-6-----6-----6----|---6------6-----6-|-------6---------||


 2.
                6/4
  PM  PM|
|--------------|-----------------------|
|--------------|-----------------------|
|--------------|-----------------------|
|---8----------|-----------------------|
|-7-----7------|-1-----[7]-------------|
|-----0---6----|---1----------[6]------|
|
  PM  PM|
|--------------|-----------------------|
|--------------|-----------------------|
|--------------|-----------------------|
|---8----------|-----------------------|
|-7-----7------|-1-----[7]-------------|
|-----0---6----|---1----------[6]------|


   Riff B (1:54)
   4/4
    Gtr I
    PM       PM--------|        PM|
||-------------------|--------------------|
||o------------------|--------------------|
||-------------------|-----------------10-|
||------[6]----------|-----[6]-------9----|
||o---7--------------|---7----------------|
||--0--------0-0-0-0-|-0--------0-0-------|
|
|   Gtr II
|   PM       PM--------|        PM|
||-------------------|--------------------|
||o------------------|--------------------|
||-------------------|-----------------13-|
||------[9]----------|-----[9]------12----|
||o---7--------------|---7----------------|
||--0--------0-0-0-0-|-0--------0-0-------|


  PM       PM--------|   ~  PM
|------------------|-----------------||
|------------------|----------------o||
|------------------|----------10-----||
|-----[6]----------|-----------------||
|---7--------------|---7-7-------8--o||
|-0--------0-0-0-0-|-0------0--------||
|
| PM       PM--------|   ~  PM
|------------------|-----------------||
|------------------|----------------o||
|------------------|----------10-----||
|-----[9]----------|-----------------||
|---7--------------|---7-7-------8--o||
|-0--------0-0-0-0-|-0------0--------||


  Gtr I
  PM  ~  PM        PM    ~~~~  PM
|----------------|----------------------------|
|----------------|----------------------------|
|----------------|-----------------10---------|
|----------------|----------------------------|
|---7-7----11-8--|---7---7--------------8-----|
|-0------0-------|-0-----------0--------------|
|
| Gtr II
| PM  ~  PM        PM          PM
|----------------|----------------------------|
|----------------|------------------9---------|
|----------------|----------------------------|
|----------------|----------------------6-----|
|---7-7----11-8--|---7-[10]----7--------------|
|-0------0-------|-0--------------------------|
|
| Gtr III
|----------------|----------------------------|
|----------------|----------------------------|
|----------------|----------------------------|
|----------------|------------------------5-6-|
|----------------|--------------------7-8-----|
|----------------|-0-----8p5h8p5-8------------|


                                       2/4
  PM                  PM
|-------------------------------------|----------|
|-------------------------------------|----------|
|-------------------------------------|----------|
|-------------------------------------|----------|
|-----7b9r======(7)-------11----8-----|----------|
|-0-------------------0---------------|----------|
|
| PM                  PM
|-------------------------------------|----------|
|-------------------------------------|----------|
|-----6b8r======(6)-------10----7-----|----------|
|-------------------------------------|----------|
|-------------------------------------|----------|
|-0-------------------0---------------|----------|
|
|                               2.5
|-------------------------------------|----------|
|-----------5-7-----5-8-7----5-[4]----|-([4])----|
|-5-6-----8---------------------------|----------|
|-------------------------------------|----------|
|-------------------------------------|----------|
|-------------------------------------|----------|


 Guitar Solo (2:07)
 4/4
  Gtrs I, II
    PM--|        PM--------------|             PM
|------------------------------|----------------------------|
|------------------------------|----------------------------|
|------------------------------|-----------------7--------7-|
|------------------------------|--------------------5-------|
|------------------------------|----------------------------|
|---0---0--0-----0-0---0-----0-|---0------0-0--0------------|
|
| Gtr III
|------------------------------|----------------------------|
|-([4])----9----------(9)------|--(9)--------------[9]b10r==|
|---------12b13r=====(12)b13r==|=(12)b13=========9----------|
|------------------------------|---------------8------------|
|------------------------------|----------------------------|
|------------------------------|----------------------------|


    PM--|        PM---------|       PM  ~
|-------------------------|-----------------------|
|-------------------------|-----------------------|
|-------------------------|-----------------------|
|-------------------------|-----------------------|
|-------------------------|-----------------------|
|---0---0--0-----0-0-0--0-|-0-0-0---0-1-1---------|
|
|---------------10--------|-----------------------|
|-([9])-------------------|-----------------------|
|---------10-14------7-12-|-------7---------------|
|-------------------------|-----7-----7--------7--|
|-------------------------|-8-------------8h10----|
|-------------------------|-----------------------|


 4/4
   PM---|        PM--------|           PM
|------------------------|--------------------------------|
|------------------------|--------------------------------|
|------------------------|------------------7---------7---|
|------------------------|-----------------------5--------|
|------------------------|--------------------------------|
|--0-----0---0---0-0-0-0-|--0--0--0----0------------------|
|
|------------------------|--------------------------------|
|------------------------|--------------------------------|
|------------------------|-----------------------9-11---9-|
|-10h12-14-(14)------7S9-|-10S12-14-12-9h10h==12----------|
|------------------------|--------------------------------|
|------------------------|--------------------------------|


   PM--|         PM----------------------|                  PM        ~~~
|--------------------------------------|-------------------------------------|
|--------------------------------------|-------------------------------------|
|--------------------------------------|-------------------------------------|
|--------------------------------------|-------------------------------------|
|--------------------------------------|-------------------------------------|
|--0---3-----0---0----0----0----0------|-0----0-----0-------0---1-----1------|
|
|--------------------------------------|-------------------------------------|
|-----------13--12-10---9--------------|-------------------------------------|
|-------------------------13-10---9----|-----------------9h11p9--------------|
|-12-9---10-------------------------12-|-9-12---15p14p12----------12p10p9----|
|--------------------------------------|----------------------------------12-|
|--------------------------------------|------0------------------------------|


   PM---|              PM--------------------
|-------------------------------------------|
|-------------------------------------------|
|-------------------------------------------|
|-------------------------------------------|
|-------------------------------------------|
|--1----1-----1--------1----1-----1----1----|
|
|          T              T               T
|-13h17---19p17p13p12-----------------------|
|---------------------13-17p==13p12h13---17p|
|-------------------------------------------|
|-------------------------------------------|
|-------------------------------------------|
|-------------------------------------------|


 -|                    PM-------------------------|
|---------------------------------------------------|
|---------------------------------------------------|
|---------------------------------------------------|
|---------------------------------------------------|
|---------------------------------------------------|
|--1----1-----1--------1-1----1----1--1-1----1----1-|
|
|                   T                           T
|---------------------------------------------------|
|-13p12p==10h12h13-17p13p==12p==10h==12h==13---17---|
|---------------------------------------------------|
|---------------------------------------------------|
|---------------------------------------------------|
|---------------------------------------------------|


  Gtrs I, II
   PM---|              PM--------------------
|-------------------------------------------|
|-------------------------------------------|
|-------------------------------------------|
|-------------------------------------------|
|-------------------------------------------|
|--1----1-----1--------1----1-----1----1----|
|
| Gtr III
|          T                              T
|-13h17---19p17p13h15p13p12-----------------|
|-----------------------------13-12h13---17p|
|-------------------------------------------|
|-------------------------------------------|
|-------------------------------------------|
|-------------------------------------------|
|
| Gtr IV
|-------------------------------------------|
|-------------------------------------------|
|-------------------------------------------|
|-------------------------------------------|
|-------------------------------------------|
|-------------------------------------------|


 -|
|---------------------------------------|
|---------------------------------------|
|---------------------------------------|
|---------------------------------------|
|---------------------------------------|
|--1----1-----1h===4-----1h===4----1h=4-|
|
|                     T          T
|---------------------------------------|
|-13p12p==10h12h13---17p12h13---20-5S12-|
|---------------------------------------|
|---------------------------------------|
|---------------------------------------|
|---------------------------------------|
|
|---------------------------------------|
|---------------------------------------|
|----------------------------------5S=9-|
|---------------------------------------|
|---------------------------------------|
|---------------------------------------|


 4/4
  Gtrs I, II
   PM|        PM----------|               PM
|-----------------------|----------------------------|
|-----------------------|----------------------------|
|-----------------------|--------------------7-----7-|
|-----------------------|-----------------------5----|
|-----------------------|----------------------------|
|--0-0-0------0--0-0--0-|---0---0--0------0----------|
|
|-----------------------|----------------------------|
|-12-----13-------------|----------------------------|
|-----------------------|-------------------------16-|
|--------------------14-|-(14)-15-14-----------14----|
|-----------------------|------------13-(13)---------|
|-----------------------|----------------------------|
|
|-----------------------|----------------------------|
|-----------------------|----------------------------|
|--9-----16-(16)--------|----------------------------|
|-----------------------|----------------------------|
|-----------------------|----------------------------|
|-----------------------|----------------------------|


   PM|            PM-----------------|                     PM    ~~
|----------------------------------|---------------------------------------|
|----------------------------------|---------------------------------------|
|----------------------------------|---------------------------------------|
|----------------------------------|---------------------------------------|
|----------------------------------|---------------------------------------|
|--0--0--0--------0-----0-----0--0-|--0--0--------0--------0--1--1---------|
|
|-------------------------14-15-14-|-17-15p14h17----14-15-15---------15S==|
|-19-20---------------15----------|-------------17----------------15------|
|----------16-14----16-------------|----------------------------14---------|
|----------------14----------------|---------------------------------------|
|----------------------------------|---------------------------------------|
|----------------------------------|---------------------------------------|
|
|----------------------------------|---------------------------------------|
|----------------------------------|---------------------------------------|
|----------------------------------|---------------------------------------|
|----------------------------------|---------------------------------------|
|----------------------------------|---------------------------------------|
|----------------------------------|---------------------------------------|


 4/4
   PM---|        PM--------------|                   PM
|------------------------------|----------------------------------------|
|------------------------------|----------------------------------------|
|------------------------------|---------------------------7-------7----|
|------------------------------|------------------------------5---------|
|------------------------------|----------------------------------------|
|--0----0---0----0-0----0----0-|--0-0--0-------------0------------------|
|
|-18b20r==(18)--16---14--------|-----------------------------17-14------|
|-------------------------17---|-15---15------------------18---------15-|
|------------------------------|---------14-------16---18---------------|
|------------------------------|------------13-15-----------------------|
|------------------------------|----------------------------------------|
|------------------------------|----------------------------------------|


   PM|         PM----------|                    PM         ~~
|------------------------|-----------------------------------------|
|------------------------|-----------------------------------------|
|------------------------|-----------------------------------------|
|------------------------|-----------------------------------------|
|------------------------|-----------------------------------------|
|--0--3--0-----0--0--0-0-|--0----0-----0--------0----1-----1-------|
|
|                    ~~
|------------------------|-12h15p==12------------------------------|
|----17----13----13-12---|------------15-12h15p12------------------|
|-------14---------------|------------------------14---12-14-12-13-|
|-14----------14---------|-----------------------------------------|
|------------------------|-----------------------------------------|
|------------------------|-----------------------------------------|


  Gtrs I, II
   PM---|                   PM---------------------
|--------------------------------------------------|
|--------------------------------------------------|
|--------------------------------------------------|
|--------------------------------------------------|
|--------------------------------------------------|
|--1----1------1------------1-----1-----1-----1----|
|
| Gtr III
|-18---------(18)b20-------------------------------|
|--------------------------------------------------|
|--------------------------------------------------|
|--------------------------------------------------|
|--------------------------------------------------|
|--------------------------------------------------|
|
| Gtr IV
|-18-17--------------------------------------------|
|---------18--17-----15----15----------------------|
|-----------------------17----17-15-14----14-15-14-|
|--------------------------------------17----------|
|--------------------------------------------------|
|--------------------------------------------------|


  PM                   PM----------------------------
|---------------------------------------------------|
|---------------------------------------------------|
|---------------------------------------------------|
|---------------------------------------------------|
|---------------------------------------------------|
|--1----1-----1--------1-1----1----1--1-1----1----1-|
|
| Gtr IV
|---------------------------------------------------|
|---------------------------------------------------|
|---------------------------------------------------|
|-17-15---14----14h15p14----------------------------|
|------------17------------17---15p==14-------------|
|-----------------------------------------17---16---|


 -------|                  PM--------|
|----------------------------------|-----------------------------------|
|----------------------------------|-----------------------------------|
|----------------------------------|-----------------------------------|
|----------------------------------|-----------------------------------|
|----------------------------------|-----------------------------------|
|--1-----1-----1-----------1-1-1-1-|--1----1------1h=4-1h4---1h==4-----|
|
|----------------------------------|-----------------------------------|
|----------------------------------|-----------------------------------|
|----------------------------------|-----------------------------------|
|----------------------------------|-----------------------------------|
|----------------------------------|-----------------------------------|
|----------------------------------|-----------------------------------|
|
|                                                 2
|-------------------------22-------|-----------------------------------|
|----------------------------------|-----------------------------------|
|-------------------18-21----------|-22-------------------------24b26r=|
|-------------17-20----------------|----21-----------------------------|
|-------16-19----------------------|---------20-(20)-------(20)--------|
|-15-18----------------------------|-----------------------------------|


 4/4
    PM----|            PM-------------|                 PM
|-----------------------------------|------------------------------------------|
|-----------------------------------|------------------------------------------|
|-----------------------------------|----------------------------7-----------7-|
|-----------------------------------|--------------------------------------5---|
|-----------------------------------|------------------------------------------|
|---0------0-----0-----0--0-----0-0-|--0----0-----0-----0----------------------|
|
|-----------------------------------|------------------------------------------|
|-----------------------------------|------------------------------------------|
|-----------------------------------|---------------13h15b15.5r(15)b15.5r(15)--|
|--12h=14-12------------------------|---------13h15----------------------------|
|------------14-12-14-11-13-11------|-11h13------------------------------------|
|------------------------------12---|------------------------------------------|
|
|-----------------------------------|------------------------------------------|
|-----------------------------------|------------------------------------------|
|-(24)------------------------------|------------------------------------------|
|-----------------------------------|------------------------------------------|
|-----------------------------------|------------------------------------------|
|-----------------------------------|------------------------------------------|


  PM|      PM---------------------|                    PM         ~~~
|-------------------------------|----------------------------------------|
|-------------------------------|----------------------------------------|
|-------------------------------|----------------------------------------|
|-------------------------------|----------------------------------------|
|-------------------------------|----------------------------------------|
|-0-0-0----0----0-----0----0----|--0------0---0--------0----1-----1------|
|
|                                                              ~~
|--------------------19---------|----------------------------------------|
|-----------------20----20------|----------------------------------------|
|------------21--------------21-|---------------------15h16p==15---------|
|---------21--------------------|------------14-16-16------------16S18---|
|-------------------------------|-14b16r(14)-----------------------------|
|-0-3-5-0-----------------------|----------------------------------------|
|
|-------------------------------|----------------------------------------|
|-------------------------------|----------------------------------------|
|-------------------------------|----------------------------------------|
|-------------------------------|----------------------------------------|
|-------------------------------|----------------------------------------|
|-------------------------------|----------------------------------------|


 4/4
  Gtrs I, II
    PM----|                  PM-------------------
|------------------------------------------------|
|------------------------------------------------|
|------------------------------------------------|
|------------------------------------------------|
|------------------------------------------------|
|---0-----0-------0----------0----0-------0----0-|
|
| Gtr III
|-------------------------------------------22---|
|------------------------------21---23-24--------|
|-------------------19-21-22---------------------|
|-(18)-18---20-21--------------------------------|
|------------------------------------------------|
|------------------------------------------------|


 -|                  PM
|-------------------------------------------|
|-------------------------------------------|
|--------------------------7-----------7----|
|--------------------------------5----------|
|-------------------------------------------|
|--0--0-----0--------0----------------------|
|
|----------------23-------------------------|
|-24-23-21-23-21----24-23-21----------------|
|----------------------------23-21-19-21-19-|
|-------------------------------------------|
|-------------------------------------------|
|-------------------------------------------|


   PM--------------------------------------
|-----------------------------------------|
|-----------------------------------------|
|-----------------------------------------|
|-----------------------------------------|
|-----------------------------------------|
|--0-----0-----0-----------------0-0----0-|
|
|----------19-----------------------------|
|-------20----20--------------------------|
|----21----------19-------22-20-16S==21---|
|-21----------------19-20-----------------|
|-----------------------------------------|
|-----------------------------------------|


 -|
|-------------------------------------|
|-------------------------------------|
|-------------------------------------|
|-------------------------------------|
|-------------------------------------|
|--0----------------------------------|
|
|-22-22-------------------------------|
|--------24-22-21---------------------|
|-----------------23-21-23-(23)b25----|
|-------------------------------------|
|-------------------------------------|
|-------------------------------------|


 Riff B (2:44) (with lead guitar fading)

 Riff C (2:57)

 Riff D (3:04)

 Riff C' (3:11)

 Pre-Verse (3:18)

 Verse (3:28)

 Riff D (3:57)

 Chorus (4:05)

 Riff B (4:21)

 This next part is a slight rhythmic variation of Riff B with one extra note:

 Outro (4:30)
   4/4
    Gtr I
    PM       PM------|        PM
||-----------------|---------------------|
||o----------------|---------------------|
||-----------------|------------------10-|
||------[6]--------|-----[6]--------9----|
||o---7------------|---7---------8-------|
||--0--------0-0-0-|-0--------0----------|
|
|   Gtr II
|   PM       PM------|        PM
||-----------------|---------------------|
||o----------------|---------------------|
||-----------------|------------------13-|
||------[9]--------|-----[9]-------12----|
||o---7------------|---7--------11-------|
||--0--------0-0-0-|-0--------0----------|


  PM       PM------------|   ~  PM
|----------------------|------------------||
|----------------------|-----------------o||
|----------------------|----------10------||
|-----[6]--------------|------------------||
|---7------------------|---7-7-------8---o||
|-0--------0-0-0-0-0-0-|-0------0---------||
|
| PM       PM------------|   ~  PM
|----------------------|------------------||
|----------------------|-----------------o||
|----------------------|----------10------||
|-----[9]--------------|------------------||
|---7------------------|---7-7-------8---o||
|-0--------0-0-0-0-0-0-|-0------0---------||


  PM  ~  PM        PM    ~~~~PM        PM--------------|
|----------------|-------------------|--------------------*|
|----------------|-------------------|--------------------*|
|----------------|-------------10----|--------------------*|
|----------------|-------------------|--------------------*|
|---7-7----11-8--|---7---7--------8--|--------------------*|
|-0------0-------|-0---------0-------|-0-0-0-0-0-0-0-0-0--*|
|
| PM  ~  PM        PM        PM        PM--------------|
|----------------|-------------------|--------------------*|
|----------------|--------------9----|--------------------*|
|----------------|-------------------|--------------------*|
|----------------|----------------6--|--------------------*|
|---7-7----11-8--|---7-[10]--7-------|--------------------*|
|-0------0-------|-0-----------------|-0-0-0-0-0-0-0-0-0--*|



 Fermented Offal Discharge-----------------------------------------
 
Tap to rate this tab
 
# A B C D E F G H I J K L M N O P Q R S T U V W X Y Z